  0
SECTION
  2
HEADER
  9
$ACADVER
  1
AC1015
  9
$ACADMAINTVER
 70
     6
  9
$DWGCODEPAGE
  3
DOS850
  9
$INSBASE
 10
0.0
 20
0.0
 30
0.0
  9
$EXTMIN
 10
-78.9684
 20
-79.3343
 30
1.000000E+20
  9
$EXTMAX
 10
17.1538
 20
68.2895
 30
-1.000000E+20
  9
$LIMMIN
 10
0.0
 20
0.0
  9
$LIMMAX
 10
0.0
 20
0.0
  9
$ORTHOMODE
 70
     0
  9
$REGENMODE
 70
     1
  9
$FILLMODE
 70
     1
  9
$QTEXTMODE
 70
     0
  9
$MIRRTEXT
 70
     1
  9
$LTSCALE
 40
1.0
  9
$ATTMODE
 70
     1
  9
$TEXTSIZE
 40
0.2
  9
$TRACEWID
 40
0.05
  9
$TEXTSTYLE
  7
Standard
  9
$CLAYER
  8
0
  9
$CELTYPE
  6
Continuous
  9
$CECOLOR
 62
   256
  9
$CELTSCALE
 40
1.0
  9
$DISPSILH
 70
     0
  9
$DIMSCALE
 40
1.0
  9
$DIMASZ
 40
0.18
  9
$DIMEXO
 40
0.0625
  9
$DIMDLI
 40
0.38
  9
$DIMRND
 40
0.0
  9
$DIMDLE
 40
0.0
  9
$DIMEXE
 40
0.18
  9
$DIMTP
 40
0.0
  9
$DIMTM
 40
0.0
  9
$DIMTXT
 40
0.18
  9
$DIMCEN
 40
0.09
  9
$DIMTSZ
 40
0.0
  9
$DIMTOL
 70
     0
  9
$DIMLIM
 70
     0
  9
$DIMTIH
 70
     1
  9
$DIMTOH
 70
     1
  9
$DIMSE1
 70
     0
  9
$DIMSE2
 70
     0
  9
$DIMTAD
 70
     0
  9
$DIMZIN
 70
     0
  9
$DIMBLK
  1

  9
$DIMASO
 70
     1
  9
$DIMSHO
 70
     1
  9
$DIMPOST
  1

  9
$DIMAPOST
  1

  9
$DIMALT
 70
     0
  9
$DIMALTD
 70
     2
  9
$DIMALTF
 40
25.4
  9
$DIMLFAC
 40
1.0
  9
$DIMTOFL
 70
     0
  9
$DIMTVP
 40
0.0
  9
$DIMTIX
 70
     0
  9
$DIMSOXD
 70
     0
  9
$DIMSAH
 70
     0
  9
$DIMBLK1
  1

  9
$DIMBLK2
  1

  9
$DIMSTYLE
  2
Standard
  9
$DIMCLRD
 70
     0
  9
$DIMCLRE
 70
     0
  9
$DIMCLRT
 70
     0
  9
$DIMTFAC
 40
1.0
  9
$DIMGAP
 40
0.09
  9
$DIMJUST
 70
     0
  9
$DIMSD1
 70
     0
  9
$DIMSD2
 70
     0
  9
$DIMTOLJ
 70
     1
  9
$DIMTZIN
 70
     0
  9
$DIMALTZ
 70
     0
  9
$DIMALTTZ
 70
     0
  9
$DIMUPT
 70
     0
  9
$DIMDEC
 70
     4
  9
$DIMTDEC
 70
     4
  9
$DIMALTU
 70
     2
  9
$DIMALTTD
 70
     2
  9
$DIMTXSTY
  7
Standard
  9
$DIMAUNIT
 70
     0
  9
$DIMADEC
 70
     0
  9
$DIMALTRND
 40
0.0
  9
$DIMAZIN
 70
     0
  9
$DIMDSEP
 70
     0
  9
$DIMATFIT
 70
     3
  9
$DIMFRAC
 70
     0
  9
$DIMLDRBLK
  1

  9
$DIMLUNIT
 70
     2
  9
$DIMLWD
 70
     0
  9
$DIMLWE
 70
     0
  9
$DIMTMOVE
 70
     0
  9
$LUNITS
 70
     2
  9
$LUPREC
 70
     4
  9
$SKETCHINC
 40
0.1
  9
$FILLETRAD
 40
0.0
  9
$AUNITS
 70
     0
  9
$AUPREC
 70
     0
  9
$MENU
  1
acad
  9
$ELEVATION
 40
0.0
  9
$PELEVATION
 40
0.0
  9
$THICKNESS
 40
0.0
  9
$LIMCHECK
 70
     0
  9
$CHAMFERA
 40
0.0
  9
$CHAMFERB
 40
0.0
  9
$CHAMFERC
 40
0.0
  9
$CHAMFERD
 40
0.0
  9
$SKPOLY
 70
     0
  9
$TDCREATE
 40
0.000000000
  9
$TDUCREATE
 40
0.000000000
  9
$TDUPDATE
 40
0.000000000
  9
$TDUUPDATE
 40
0.000000000
  9
$TDINDWG
 40
0.0000000000
  9
$TDUSRTIMER
 40
0.0000000000
  9
$USRTIMER
 70
     1
  9
$ANGBASE
 50
0.0
  9
$ANGDIR
 70
     0
  9
$PDMODE
 70
     0
  9
$PDSIZE
 40
0.0
  9
$PLINEWID
 40
0.0
  9
$SPLFRAME
 70
     0
  9
$SPLINETYPE
 70
     6
  9
$SPLINESEGS
 70
     8
  9
$HANDSEED
  5
1D8
  9
$SURFTAB1
 70
     6
  9
$SURFTAB2
 70
     6
  9
$SURFTYPE
 70
     6
  9
$SURFU
 70
     6
  9
$SURFV
 70
     6
  9
$UCSBASE
  2

  9
$UCSNAME
  2

  9
$UCSORG
 10
0.0
 20
0.0
 30
0.0
  9
$UCSXDIR
 10
1.0
 20
0.0
 30
0.0
  9
$UCSYDIR
 10
0.0
 20
1.0
 30
0.0
  9
$UCSORTHOREF
  2

  9
$UCSORTHOVIEW
 70
     0
  9
$UCSORGTOP
 10
0.0
 20
0.0
 30
0.0
  9
$UCSORGBOTTOM
 10
0.0
 20
0.0
 30
0.0
  9
$UCSORGLEFT
 10
0.0
 20
0.0
 30
0.0
  9
$UCSORGRIGHT
 10
0.0
 20
0.0
 30
0.0
  9
$UCSORGFRONT
 10
0.0
 20
0.0
 30
0.0
  9
$UCSORGBACK
 10
0.0
 20
0.0
 30
0.0
  9
$PUCSBASE
  2

  9
$PUCSNAME
  2

  9
$PUCSORG
 10
0.0
 20
0.0
 30
0.0
  9
$PUCSXDIR
 10
1.0
 20
0.0
 30
0.0
  9
$PUCSYDIR
 10
0.0
 20
1.0
 30
0.0
  9
$PUCSORTHOREF
  2

  9
$PUCSORTHOVIEW
 70
     0
  9
$PUCSORGTOP
 10
0.0
 20
0.0
 30
0.0
  9
$PUCSORGBOTTOM
 10
0.0
 20
0.0
 30
0.0
  9
$PUCSORGLEFT
 10
0.0
 20
0.0
 30
0.0
  9
$PUCSORGRIGHT
 10
0.0
 20
0.0
 30
0.0
  9
$PUCSORGFRONT
 10
0.0
 20
0.0
 30
0.0
  9
$PUCSORGBACK
 10
0.0
 20
0.0
 30
0.0
  9
$USERI1
 70
     0
  9
$USERI2
 70
     0
  9
$USERI3
 70
     0
  9
$USERI4
 70
     0
  9
$USERI5
 70
     0
  9
$USERR1
 40
0.0
  9
$USERR2
 40
0.0
  9
$USERR3
 40
0.0
  9
$USERR4
 40
0.0
  9
$USERR5
 40
0.0
  9
$WORLDVIEW
 70
     1
  9
$SHADEDGE
 70
     3
  9
$SHADEDIF
 70
    70
  9
$TILEMODE
 70
     1
  9
$MAXACTVP
 70
    16
  9
$PINSBASE
 10
0.0
 20
0.0
 30
0.0
  9
$PLIMCHECK
 70
     0
  9
$PEXTMIN
 10
1.000000E+20
 20
1.000000E+20
 30
1.000000E+20
  9
$PEXTMAX
 10
-1.000000E+20
 20
-1.000000E+20
 30
-1.000000E+20
  9
$PLIMMIN
 10
0.0
 20
0.0
  9
$PLIMMAX
 10
12.0
 20
9.0
  9
$UNITMODE
 70
     0
  9
$VISRETAIN
 70
     0
  9
$PLINEGEN
 70
     1
  9
$PSLTSCALE
 70
     0
  9
$TREEDEPTH
 70
  3020
  9
$CMLSTYLE
  2
Standard
  9
$CMLJUST
 70
     0
  9
$CMLSCALE
 40
1.0
  9
$PROXYGRAPHICS
 70
     0
  9
$MEASUREMENT
 70
     0
  9
$CELWEIGHT
370
     0
  9
$ENDCAPS
280
     0
  9
$JOINSTYLE
280
     0
  9
$LWDISPLAY
290
     0
  9
$INSUNITS
 70
     4
  9
$HYPERLINKBASE
  1

  9
$XEDIT
290
     1
  9
$CEPSNTYPE
380
     0
  9
$PSTYLEMODE
290
     1
  9
$FINGERPRINTGUID
  2

  9
$VERSIONGUID
  2

  9
$EXTNAMES
290
     1
  9
$PSVPSCALE
 40
0.0
  0
ENDSEC
  0
SECTION
  2
CLASSES
  0
CLASS
  1
LWPOLYLINE
  2
AcDbPolyline
  3
AutoCAD 2000
 90
    32768
280
     0
281
     1
  0
CLASS
  1
IMAGE
  2
AcDbRasterImage
  3
ISM
 90
    32895
280
     0
281
     1
  0
CLASS
  1
OLE2FRAME
  2
AcDbOle2Frame
  3
AutoCAD 2000
 90
    32768
280
     0
281
     1
  0
CLASS
  1
HATCH
  2
AcDbHatch
  3
AutoCAD 2000
 90
    32768
280
     0
281
     1
  0
CLASS
  1
DICTIONARYVAR
  2
AcDbDictionaryVar
  3
AutoCAD 2000
 90
    32768
280
     0
281
     0
  0
CLASS
  1
RASTERVARIABLES
  2
AcDbRasterVariables
  3
ISM
 90
    32768
280
     0
281
     0
  0
CLASS
  1
IMAGEDEF
  2
AcDbRasterImageDef
  3
ISM
 90
    32768
280
     0
281
     0
  0
CLASS
  1
IMAGEDEF_REACTOR
  2
AcDbRasterImageDefReactor
  3
ISM
 90
    32769
280
     0
281
     0
  0
CLASS
  1
IDBUFFER
  2
AcDbIdBuffer
  3
AutoCAD 2000
 90
    32768
280
     0
281
     0
  0
CLASS
  1
SPATIAL_FILTER
  2
AcDbSpatialFilter
  3
AutoCAD 2000
 90
    32768
280
     0
281
     0
  0
CLASS
  1
XRECORD
  2
AcDbXrecord
  3
AutoCAD 2000
 90
    32768
280
     0
281
     0
  0
CLASS
  1
SORTENTSTABLE
  2
AcDbSortentsTable
  3
AutoCAD 2000
 90
    32768
280
     0
281
     0
  0
CLASS
  1
LAYER_INDEX
  2
AcDbLayerIndex
  3
AutoCAD 2000
 90
    32768
280
     0
281
     0
  0
CLASS
  1
SPATIAL_INDEX
  2
AcDbSpatialIndex
  3
AutoCAD 2000
 90
    32768
280
     0
281
     0
  0
CLASS
  1
OBJECT_PTR
  2
CAseDLPNTableRecord
  3
"ASE-LPNTableRecord"
 90
    32769
280
     0
281
     0
  0
CLASS
  1
LAYOUT
  2
AcDbLayout
  3
AutoCAD 2000
 90
        0
280
     0
281
     0
  0
CLASS
  1
PLOTSETTINGS
  2
AcDbPlotSettings
  3
AutoCAD 2000
 90
    32768
280
     0
281
     0
  0
CLASS
  1
ACDBDICTIONARYWDFLT
  2
AcDbDictionaryWithDefault
  3
AutoCAD 2000
 90
        0
280
     0
281
     0
  0
CLASS
  1
ACDBPLACEHOLDER
  2
AcDbPlaceHolder
  3
AutoCAD 2000
 90
        0
280
     0
281
     0
  0
CLASS
  1
VBA_PROJECT
  2
AcDbVbaProject
  3
acadvba
 90
    32768
280
     0
281
     0
  0
CLASS
  1
WIPEOUT
  2
AcDbWipeout
  3
WipeOut|AutoCAD Express Tool|expresstools@autodesk.com
 90
    32895
280
     0
281
     1
  0
CLASS
  1
WIPEOUTVARIABLES
  2
AcDbWipeoutVariables
  3
WipeOut|AutoCAD Express Tool|expresstools@autodesk.com
 90
        0
280
     0
281
     0
  0
CLASS
  1
RTEXT
  2
RText
  3
RText|AutoCAD Express Tool|expresstools@autodesk.com
 90
    32768
280
     0
281
     1
  0
CLASS
  1
ARCALIGNEDTEXT
  2
AcDbArcAlignedText
  3
ATEXT|AutoCAD Express Tool|expresstools@autodesk.com
 90
    32768
280
     0
281
     1
  0
ENDSEC
  0
SECTION
  2
TABLES
  0
TABLE
  2
VPORT
  5
7
100
AcDbSymbolTable
 70
     1
  0
VPORT
  5
15
100
AcDbSymbolTableRecord
100
AcDbViewportTableRecord
  2
*ACTIVE
 70
     0
 10
0.0
 20
0.0
 11
1.0
 21
1.0
 12
6.591288
 22
4.579184
 13
0.0
 23
0.0
 14
1.0
 24
1.0
 15
0.0
 25
0.0
 16
0.0
 26
0.0
 36
1.0
 17
0.0
 27
0.0
 37
0.0
 40
9.158369
 41
0.688564
 42
50.0
 43
0.0
 44
0.0
 50
0.0
 51
0.0
 71
     0
 72
   100
 73
     1
 74
     1
 75
     0
 76
     0
 77
     0
 78
     0
281
     0
 65
     0
110
0.0
120
0.0
130
0.0
111
1.0
121
0.0
131
0.0
112
0.0
122
1.0
132
0.0
345
0
346
0
 79
     0
146
0.0
  0
ENDTAB
  0
TABLE
  2
LTYPE
  5
4
100
AcDbSymbolTable
 70
     5
  0
LTYPE
  5
11
100
AcDbSymbolTableRecord
100
AcDbLinetypeTableRecord
  2
ByBlock
 70
    64
  3

 72
    65
 73
     0
 40
0.0
  0
LTYPE
  5
12
100
AcDbSymbolTableRecord
100
AcDbLinetypeTableRecord
  2
ByLayer
 70
    64
  3

 72
    65
 73
     0
 40
0.0
  0
LTYPE
  5
13
100
AcDbSymbolTableRecord
100
AcDbLinetypeTableRecord
  2
Continuous
 70
    64
  3
Solid line
 72
    65
 73
     0
 40
0.0
  0
LTYPE
  5
85
100
AcDbSymbolTableRecord
100
AcDbLinetypeTableRecord
  2
New Line1
 70
    65
  3

 72
    64
 73
     4
 40
1.2
 49
0.5
 74
     0
 49
-0.3
 74
     0
 49
0.1
 74
     0
 49
-0.3
 74
     0
  0
LTYPE
  5
87
100
AcDbSymbolTableRecord
100
AcDbLinetypeTableRecord
  2
New Line2
 70
    65
  3

 72
    64
 73
     4
 40
1.2
 49
0.5
 74
     0
 49
-0.3
 74
     0
 49
0.1
 74
     0
 49
-0.3
 74
     0
  0
ENDTAB
  0
TABLE
  2
LAYER
  5
2
100
AcDbSymbolTable
 70
     8
  0
LAYER
  5
14
100
AcDbSymbolTableRecord
100
AcDbLayerTableRecord
  2
0
 70
     0
 62
     7
  6
Continuous
290
     1
370
    -3
390
1D
  0
LAYER
  5
24
100
AcDbSymbolTableRecord
100
AcDbLayerTableRecord
  2
Ebene 1
 70
     0
 62
     7
  6
Continuous
290
     1
370
    -3
390
1F
  0
LAYER
  5
38
100
AcDbSymbolTableRecord
100
AcDbLayerTableRecord
  2
LC-001-002-----0
 70
     0
 62
     7
  6
Continuous
290
     1
370
    -3
390
1F
  0
LAYER
  5
A4
100
AcDbSymbolTableRecord
100
AcDbLayerTableRecord
  2
LC-002-000-----0
 70
     0
 62
     7
  6
Continuous
290
     1
370
    -3
390
1F
  0
LAYER
  5
B3
100
AcDbSymbolTableRecord
100
AcDbLayerTableRecord
  2
LC-003-001-----0
 70
     0
 62
     7
  6
Continuous
290
     1
370
    -3
390
1F
  0
LAYER
  5
BC
100
AcDbSymbolTableRecord
100
AcDbLayerTableRecord
  2
LC-004-005-----0
 70
     0
 62
     7
  6
Continuous
290
     1
370
    -3
390
1F
  0
LAYER
  5
18E
100
AcDbSymbolTableRecord
100
AcDbLayerTableRecord
  2
LC-005-002-RND-0
 70
     0
 62
     7
  6
Continuous
290
     1
370
    -3
390
1F
  0
LAYER
  5
195
100
AcDbSymbolTableRecord
100
AcDbLayerTableRecord
  2
LC-007-003-----0
 70
     0
 62
     7
  6
Continuous
290
     1
370
    -3
390
1F
  0
ENDTAB
  0
TABLE
  2
STYLE
  5
3
100
AcDbSymbolTable
 70
     1
  0
STYLE
  5
17
100
AcDbSymbolTableRecord
100
AcDbTextStyleTableRecord
  2
Standard
 70
     0
 40
0.0
 41
1.0
 50
0.0
 71
     0
 42
0.0
  3
txt
  4

  0
ENDTAB
  0
TABLE
  2
VIEW
  5
5
100
AcDbSymbolTable
 70
     0
  0
ENDTAB
  0
TABLE
  2
UCS
  5
6
100
AcDbSymbolTable
 70
     0
  0
ENDTAB
  0
TABLE
  2
APPID
  5
8
100
AcDbSymbolTable
 70
     1
  0
APPID
  5
16
100
AcDbSymbolTableRecord
100
AcDbRegAppTableRecord
  2
ACAD
 70
     0
  0
ENDTAB
  0
TABLE
  2
DIMSTYLE
  5
9
100
AcDbSymbolTable
 70
     1
100
AcDbDimStyleTable
 71
     0
  0
DIMSTYLE
105
18
100
AcDbSymbolTableRecord
100
AcDbDimStyleTableRecord
  2
Standard
 70
     0
  3

  4

 40
1.0
 41
0.18
 42
0.0625
 43
0.38
 44
0.18
 45
0.0
 46
0.0
 47
0.0
 48
0.0
 71
     0
 72
     0
 73
     1
 74
     1
 75
     0
 76
     0
 77
     0
 78
     0
 79
     0
140
0.18
141
0.09
142
0.0
143
25.4
144
1.0
145
0.0
146
1.0
147
0.09
148
0.0
170
     0
171
     2
172
     0
173
     0
174
     0
175
     0
176
     0
177
     0
178
     0
179
     0
271
     4
272
     4
273
     2
274
     2
275
     0
276
     0
277
     2
278
    46
279
     0
280
     0
281
     0
282
     0
283
     1
284
     0
285
     0
286
     0
288
     0
340
17
341
0
342
0
343
0
344
0
371
    -2
372
    -2
  0
ENDTAB
  0
TABLE
  2
BLOCK_RECORD
  5
1
100
AcDbSymbolTable
 70
     0
  0
BLOCK_RECORD
  5
A
100
AcDbSymbolTableRecord
100
AcDbBlockTableRecord
  2
*MODEL_SPACE
340
20
  0
BLOCK_RECORD
  5
B
100
AcDbSymbolTableRecord
100
AcDbBlockTableRecord
  2
*PAPER_SPACE
340
21
  0
ENDTAB
  0
ENDSEC
  0
SECTION
  2
BLOCKS
  0
BLOCK
  5
D
100
AcDbEntity
  8
0
100
AcDbBlockBegin
  2
*MODEL_SPACE
 70
     0
 10
0.0
 20
0.0
 30
0.0
  3
*MODEL_SPACE
  1

  0
ENDBLK
  5
E
100
AcDbEntity
  8
0
100
AcDbBlockEnd
  0
BLOCK
  5
F
100
AcDbEntity
 67
     1
  8
0
100
AcDbBlockBegin
  2
*PAPER_SPACE
 70
     0
 10
0.0
 20
0.0
 30
0.0
  3
*PAPER_SPACE
  1

  0
ENDBLK
  5
10
100
AcDbEntity
 67
     1
  8
0
100
AcDbBlockEnd
  0
ENDSEC
  0
SECTION
  2
ENTITIES
  0
SPLINE
  5
25
100
AcDbEntity
  8
Ebene 1
100
AcDbSpline
210
0.0
220
0.0
230
1.0
 70
     1
 71
     3
 72
    52
 73
    48
 74
     0
 42
0.0000000001
 43
0.0000000001
 40
0.0
 40
0.0
 40
0.0
 40
0.0
 40
0.0833333333333333
 40
0.0833333333333333
 40
0.0833333333333333
 40
0.0833333333333333
 40
0.1666666666666667
 40
0.1666666666666667
 40
0.1666666666666667
 40
0.1666666666666667
 40
0.25
 40
0.25
 40
0.25
 40
0.25
 40
0.3333333333333333
 40
0.3333333333333333
 40
0.3333333333333333
 40
0.3333333333333333
 40
0.4166666666666666
 40
0.4166666666666666
 40
0.4166666666666666
 40
0.4166666666666666
 40
0.4999999999999999
 40
0.4999999999999999
 40
0.4999999999999999
 40
0.4999999999999999
 40
0.5833333333333333
 40
0.5833333333333333
 40
0.5833333333333333
 40
0.5833333333333333
 40
0.6666666666666666
 40
0.6666666666666666
 40
0.6666666666666666
 40
0.6666666666666666
 40
0.75
 40
0.75
 40
0.75
 40
0.75
 40
0.8333333333333334
 40
0.8333333333333334
 40
0.8333333333333334
 40
0.8333333333333334
 40
0.9166666666666667
 40
0.9166666666666667
 40
0.9166666666666667
 40
0.9166666666666667
 40
1.0
 40
1.0
 40
1.0
 40
1.0
 10
-71.120400000000004
 20
-3.3234000000000004
 30
0.0
 10
-71.120400000000004
 20
-3.3234000000000004
 30
0.0
 10
-78.935699999999997
 20
-1.6930000000000001
 30
0.0
 10
-78.935699999999997
 20
-1.6930000000000001
 30
0.0
 10
-78.935699999999997
 20
-1.6930000000000001
 30
0.0
 10
-78.935699999999997
 20
-1.6930000000000001
 30
0.0
 10
-78.935699999999997
 20
0.6634
 30
0.0
 10
-78.935699999999997
 20
0.6634
 30
0.0
 10
-78.935699999999997
 20
0.6634
 30
0.0
 10
-78.935699999999997
 20
1.2293000000000001
 30
0.0
 10
-78.893799999999999
 20
1.6606000000000001
 30
0.0
 10
-78.813699999999997
 20
1.9590000000000001
 30
0.0
 10
-78.813699999999997
 20
1.9590000000000001
 30
0.0
 10
-78.702700000000007
 20
2.3848000000000003
 30
0.0
 10
-78.506200000000007
 20
2.7486999999999999
 30
0.0
 10
-78.22420000000001
 20
3.0526
 30
0.0
 10
-78.22420000000001
 20
3.0526
 30
0.0
 10
-77.942100000000011
 20
3.3546
 30
0.0
 10
-77.589100000000002
 20
3.5821000000000001
 30
0.0
 10
-77.165199999999999
 20
3.7349000000000001
 30
0.0
 10
-77.165199999999999
 20
3.7349000000000001
 30
0.0
 10
-76.743000000000009
 20
3.8860000000000001
 30
0.0
 10
-76.268100000000004
 20
3.9624000000000001
 30
0.0
 10
-75.742199999999997
 20
3.9624000000000001
 30
0.0
 10
-75.742199999999997
 20
3.9624000000000001
 30
0.0
 10
-75.1126
 20
3.9624000000000001
 30
0.0
 10
-74.539500000000004
 20
3.8678000000000003
 30
0.0
 10
-74.0227
 20
3.6785000000000001
 30
0.0
 10
-74.0227
 20
3.6785000000000001
 30
0.0
 10
-73.505899999999997
 20
3.4875000000000003
 30
0.0
 10
-73.051000000000002
 20
3.2400000000000002
 30
0.0
 10
-72.658000000000001
 20
2.9325000000000001
 30
0.0
 10
-72.658000000000001
 20
2.9325000000000001
 30
0.0
 10
-72.264899999999997
 20
2.625
 30
0.0
 10
-71.957400000000007
 20
2.3029000000000002
 30
0.0
 10
-71.735399999999998
 20
1.9663000000000002
 30
0.0
 10
-71.735399999999998
 20
1.9663000000000002
 30
0.0
 10
-71.513400000000004
 20
1.6315000000000002
 30
0.0
 10
-71.349699999999999
 20
1.2330000000000001
 30
0.0
 10
-71.2423
 20
0.7762
 30
0.0
 10
-71.2423
 20
0.7762
 30
0.0
 10
-71.16040000000001
 20
0.4269
 30
0.0
 10
-71.120400000000004
 20
-0.0007
 30
0.0
 10
-71.120400000000004
 20
-0.5102
 30
0.0
 10
-71.120400000000004
 20
-0.5102
 30
0.0
 10
-71.120400000000004
 20
-0.5102
 30
0.0
 10
-71.120400000000004
 20
-3.3234000000000004
 30
0.0
 10
-71.120400000000004
 20
-3.3234000000000004
 30
0.0
  0
SPLINE
  5
26
100
AcDbEntity
  8
Ebene 1
100
AcDbSpline
210
0.0
220
0.0
230
1.0
 70
     1
 71
     3
 72
    48
 73
    44
 74
     0
 42
0.0000000001
 43
0.0000000001
 40
0.0
 40
0.0
 40
0.0
 40
0.0
 40
0.0909090909090909
 40
0.0909090909090909
 40
0.0909090909090909
 40
0.0909090909090909
 40
0.1818181818181818
 40
0.1818181818181818
 40
0.1818181818181818
 40
0.1818181818181818
 40
0.2727272727272727
 40
0.2727272727272727
 40
0.2727272727272727
 40
0.2727272727272727
 40
0.3636363636363637
 40
0.3636363636363637
 40
0.3636363636363637
 40
0.3636363636363637
 40
0.4545454545454546
 40
0.4545454545454546
 40
0.4545454545454546
 40
0.4545454545454546
 40
0.5454545454545455
 40
0.5454545454545455
 40
0.5454545454545455
 40
0.5454545454545455
 40
0.6363636363636365
 40
0.6363636363636365
 40
0.6363636363636365
 40
0.6363636363636365
 40
0.7272727272727274
 40
0.7272727272727274
 40
0.7272727272727274
 40
0.7272727272727274
 40
0.8181818181818183
 40
0.8181818181818183
 40
0.8181818181818183
 40
0.8181818181818183
 40
0.9090909090909093
 40
0.9090909090909093
 40
0.9090909090909093
 40
0.9090909090909093
 40
1.0
 40
1.0
 40
1.0
 40
1.0
 10
-72.0047
 20
-2.0933000000000002
 30
0.0
 10
-72.0047
 20
-2.0933000000000002
 30
0.0
 10
-72.0047
 20
-0.8560000000000001
 30
0.0
 10
-72.0047
 20
-0.8560000000000001
 30
0.0
 10
-72.0047
 20
-0.8560000000000001
 30
0.0
 10
-72.0047
 20
-0.2973
 30
0.0
 10
-72.057500000000005
 20
0.1976
 30
0.0
 10
-72.159400000000005
 20
0.6307
 30
0.0
 10
-72.159400000000005
 20
0.6307
 30
0.0
 10
-72.223100000000002
 20
0.9018000000000001
 30
0.0
 10
-72.317700000000002
 20
1.1329
 30
0.0
 10
-72.443300000000008
 20
1.3239000000000001
 30
0.0
 10
-72.443300000000008
 20
1.3239000000000001
 30
0.0
 10
-72.601600000000005
 20
1.5769
 30
0.0
 10
-72.81450000000001
 20
1.8061
 30
0.0
 10
-73.07650000000001
 20
2.0118
 30
0.0
 10
-73.07650000000001
 20
2.0118
 30
0.0
 10
-73.425899999999999
 20
2.2829000000000002
 30
0.0
 10
-73.822500000000005
 20
2.4976000000000003
 30
0.0
 10
-74.268300000000011
 20
2.6595
 30
0.0
 10
-74.268300000000011
 20
2.6595
 30
0.0
 10
-74.714100000000002
 20
2.8215000000000003
 30
0.0
 10
-75.221800000000002
 20
2.9015
 30
0.0
 10
-75.789500000000004
 20
2.9015
 30
0.0
 10
-75.789500000000004
 20
2.9015
 30
0.0
 10
-76.422800000000009
 20
2.9015
 30
0.0
 10
-76.908600000000007
 20
2.7924000000000002
 30
0.0
 10
-77.248900000000006
 20
2.5722
 30
0.0
 10
-77.248900000000006
 20
2.5722
 30
0.0
 10
-77.587299999999999
 20
2.3520000000000003
 30
0.0
 10
-77.813000000000002
 20
2.0700000000000003
 30
0.0
 10
-77.9221
 20
1.7297
 30
0.0
 10
-77.9221
 20
1.7297
 30
0.0
 10
-78.004000000000005
 20
1.4768000000000001
 30
0.0
 10
-78.045900000000003
 20
1.0837000000000001
 30
0.0
 10
-78.045900000000003
 20
0.5506
 30
0.0
 10
-78.045900000000003
 20
0.5506
 30
0.0
 10
-78.045900000000003
 20
0.5506
 30
0.0
 10
-78.045900000000003
 20
-0.8287
 30
0.0
 10
-78.045900000000003
 20
-0.8287
 30
0.0
 10
-78.045900000000003
 20
-0.8287
 30
0.0
 10
-78.045900000000003
 20
-0.8287
 30
0.0
 10
-72.0047
 20
-2.0933000000000002
 30
0.0
 10
-72.0047
 20
-2.0933000000000002
 30
0.0
  0
SPLINE
  5
27
100
AcDbEntity
  8
Ebene 1
100
AcDbSpline
210
0.0
220
0.0
230
1.0
 70
     1
 71
     3
 72
    64
 73
    60
 74
     0
 42
0.0000000001
 43
0.0000000001
 40
0.0
 40
0.0
 40
0.0
 40
0.0
 40
0.0666666666666667
 40
0.0666666666666667
 40
0.0666666666666667
 40
0.0666666666666667
 40
0.1333333333333333
 40
0.1333333333333333
 40
0.1333333333333333
 40
0.1333333333333333
 40
0.2
 40
0.2
 40
0.2
 40
0.2
 40
0.2666666666666667
 40
0.2666666666666667
 40
0.2666666666666667
 40
0.2666666666666667
 40
0.3333333333333333
 40
0.3333333333333333
 40
0.3333333333333333
 40
0.3333333333333333
 40
0.4
 40
0.4
 40
0.4
 40
0.4
 40
0.4666666666666666
 40
0.4666666666666666
 40
0.4666666666666666
 40
0.4666666666666666
 40
0.5333333333333333
 40
0.5333333333333333
 40
0.5333333333333333
 40
0.5333333333333333
 40
0.6
 40
0.6
 40
0.6
 40
0.6
 40
0.6666666666666666
 40
0.6666666666666666
 40
0.6666666666666666
 40
0.6666666666666666
 40
0.7333333333333333
 40
0.7333333333333333
 40
0.7333333333333333
 40
0.7333333333333333
 40
0.7999999999999999
 40
0.7999999999999999
 40
0.7999999999999999
 40
0.7999999999999999
 40
0.8666666666666666
 40
0.8666666666666666
 40
0.8666666666666666
 40
0.8666666666666666
 40
0.9333333333333332
 40
0.9333333333333332
 40
0.9333333333333332
 40
0.9333333333333332
 40
1.0
 40
1.0
 40
1.0
 40
1.0
 10
-71.120400000000004
 20
4.6082999999999998
 30
0.0
 10
-71.120400000000004
 20
4.6082999999999998
 30
0.0
 10
-78.935699999999997
 20
6.2442000000000002
 30
0.0
 10
-78.935699999999997
 20
6.2442000000000002
 30
0.0
 10
-78.935699999999997
 20
6.2442000000000002
 30
0.0
 10
-78.935699999999997
 20
6.2442000000000002
 30
0.0
 10
-78.935699999999997
 20
7.2577000000000007
 30
0.0
 10
-78.935699999999997
 20
7.2577000000000007
 30
0.0
 10
-78.935699999999997
 20
7.2577000000000007
 30
0.0
 10
-78.935699999999997
 20
7.2577000000000007
 30
0.0
 10
-76.004300000000001
 20
8.5751000000000008
 30
0.0
 10
-76.004300000000001
 20
8.5751000000000008
 30
0.0
 10
-76.004300000000001
 20
8.5751000000000008
 30
0.0
 10
-75.107200000000006
 20
8.9754000000000005
 30
0.0
 10
-74.35390000000001
 20
9.2939000000000007
 30
0.0
 10
-73.742500000000007
 20
9.5286000000000008
 30
0.0
 10
-73.742500000000007
 20
9.5286000000000008
 30
0.0
 10
-73.387600000000006
 20
9.6631999999999998
 30
0.0
 10
-72.907300000000006
 20
9.819700000000001
 30
0.0
 10
-72.303200000000004
 20
9.9981000000000009
 30
0.0
 10
-72.303200000000004
 20
9.9981000000000009
 30
0.0
 10
-72.9619
 20
10.0945
 30
0.0
 10
-73.640600000000006
 20
10.214600000000001
 30
0.0
 10
-74.341099999999997
 20
10.360200000000001
 30
0.0
 10
-74.341099999999997
 20
10.360200000000001
 30
0.0
 10
-74.341099999999997
 20
10.360200000000001
 30
0.0
 10
-78.935699999999997
 20
11.319100000000001
 30
0.0
 10
-78.935699999999997
 20
11.319100000000001
 30
0.0
 10
-78.935699999999997
 20
11.319100000000001
 30
0.0
 10
-78.935699999999997
 20
11.319100000000001
 30
0.0
 10
-78.935699999999997
 20
12.338100000000001
 30
0.0
 10
-78.935699999999997
 20
12.338100000000001
 30
0.0
 10
-78.935699999999997
 20
12.338100000000001
 30
0.0
 10
-78.935699999999997
 20
12.338100000000001
 30
0.0
 10
-71.120400000000004
 20
10.707700000000001
 30
0.0
 10
-71.120400000000004
 20
10.707700000000001
 30
0.0
 10
-71.120400000000004
 20
10.707700000000001
 30
0.0
 10
-71.120400000000004
 20
10.707700000000001
 30
0.0
 10
-71.120400000000004
 20
9.6722999999999999
 30
0.0
 10
-71.120400000000004
 20
9.6722999999999999
 30
0.0
 10
-71.120400000000004
 20
9.6722999999999999
 30
0.0
 10
-71.120400000000004
 20
9.6722999999999999
 30
0.0
 10
-75.634900000000002
 20
7.7326000000000006
 30
0.0
 10
-75.634900000000002
 20
7.7326000000000006
 30
0.0
 10
-75.634900000000002
 20
7.7326000000000006
 30
0.0
 10
-76.431899999999999
 20
7.3869000000000007
 30
0.0
 10
-77.134200000000007
 20
7.1194000000000006
 30
0.0
 10
-77.742000000000004
 20
6.9265000000000008
 30
0.0
 10
-77.742000000000004
 20
6.9265000000000008
 30
0.0
 10
-77.232500000000002
 20
6.8738000000000001
 30
0.0
 10
-76.610200000000006
 20
6.7701000000000002
 30
0.0
 10
-75.869600000000005
 20
6.6172000000000004
 30
0.0
 10
-75.869600000000005
 20
6.6172000000000004
 30
0.0
 10
-75.869600000000005
 20
6.6172000000000004
 30
0.0
 10
-71.120400000000004
 20
5.6273
 30
0.0
 10
-71.120400000000004
 20
5.6273
 30
0.0
 10
-71.120400000000004
 20
5.6273
 30
0.0
 10
-71.120400000000004
 20
5.6273
 30
0.0
 10
-71.120400000000004
 20
4.6082999999999998
 30
0.0
 10
-71.120400000000004
 20
4.6082999999999998
 30
0.0
  0
SPLINE
  5
28
100
AcDbEntity
  8
Ebene 1
100
AcDbSpline
210
0.0
220
0.0
230
1.0
 70
     1
 71
     3
 72
    44
 73
    40
 74
     0
 42
0.0000000001
 43
0.0000000001
 40
0.0
 40
0.0
 40
0.0
 40
0.0
 40
0.1
 40
0.1
 40
0.1
 40
0.1
 40
0.2
 40
0.2
 40
0.2
 40
0.2
 40
0.3
 40
0.3
 40
0.3
 40
0.3
 40
0.4
 40
0.4
 40
0.4
 40
0.4
 40
0.5
 40
0.5
 40
0.5
 40
0.5
 40
0.6
 40
0.6
 40
0.6
 40
0.6
 40
0.7
 40
0.7
 40
0.7
 40
0.7
 40
0.7999999999999999
 40
0.7999999999999999
 40
0.7999999999999999
 40
0.7999999999999999
 40
0.8999999999999999
 40
0.8999999999999999
 40
0.8999999999999999
 40
0.8999999999999999
 40
1.0
 40
1.0
 40
1.0
 40
1.0
 10
-71.120400000000004
 20
13.5427
 30
0.0
 10
-71.646299999999997
 20
13.628200000000001
 30
0.0
 10
-72.279499999999999
 20
13.8102
 30
0.0
 10
-73.018299999999996
 20
14.0867
 30
0.0
 10
-73.018299999999996
 20
14.0867
 30
0.0
 10
-73.909900000000007
 20
14.417900000000001
 30
0.0
 10
-74.796000000000006
 20
14.851000000000001
 30
0.0
 10
-75.674900000000008
 20
15.3878
 30
0.0
 10
-75.674900000000008
 20
15.3878
 30
0.0
 10
-76.555599999999998
 20
15.9245
 30
0.0
 10
-77.310699999999997
 20
16.5214
 30
0.0
 10
-77.944000000000003
 20
17.1783
 30
0.0
 10
-77.944000000000003
 20
17.1783
 30
0.0
 10
-77.944000000000003
 20
17.1783
 30
0.0
 10
-77.944000000000003
 20
13.282500000000001
 30
0.0
 10
-77.944000000000003
 20
13.282500000000001
 30
0.0
 10
-77.944000000000003
 20
13.282500000000001
 30
0.0
 10
-77.944000000000003
 20
13.282500000000001
 30
0.0
 10
-78.828299999999999
 20
13.468100000000002
 30
0.0
 10
-78.828299999999999
 20
13.468100000000002
 30
0.0
 10
-78.828299999999999
 20
13.468100000000002
 30
0.0
 10
-78.828299999999999
 20
13.468100000000002
 30
0.0
 10
-78.828299999999999
 20
18.4575
 30
0.0
 10
-78.828299999999999
 20
18.4575
 30
0.0
 10
-78.828299999999999
 20
18.4575
 30
0.0
 10
-78.828299999999999
 20
18.4575
 30
0.0
 10
-77.944000000000003
 20
18.2773
 30
0.0
 10
-77.944000000000003
 20
18.2773
 30
0.0
 10
-77.944000000000003
 20
18.2773
 30
0.0
 10
-77.201599999999999
 20
17.4312
 30
0.0
 10
-76.24260000000001
 20
16.692399999999999
 30
0.0
 10
-75.070800000000006
 20
16.059200000000001
 30
0.0
 10
-75.070800000000006
 20
16.059200000000001
 30
0.0
 10
-73.716999999999999
 20
15.324100000000001
 30
0.0
 10
-72.399600000000007
 20
14.82
 30
0.0
 10
-71.120400000000004
 20
14.550700000000001
 30
0.0
 10
-71.120400000000004
 20
14.550700000000001
 30
0.0
 10
-71.120400000000004
 20
14.550700000000001
 30
0.0
 10
-71.120400000000004
 20
13.5427
 30
0.0
 10
-71.120400000000004
 20
13.5427
 30
0.0
  0
SPLINE
  5
29
100
AcDbEntity
  8
Ebene 1
100
AcDbSpline
210
0.0
220
0.0
230
1.0
 70
     1
 71
     3
 72
    52
 73
    48
 74
     0
 42
0.0000000001
 43
0.0000000001
 40
0.0
 40
0.0
 40
0.0
 40
0.0
 40
0.0833333333333333
 40
0.0833333333333333
 40
0.0833333333333333
 40
0.0833333333333333
 40
0.1666666666666667
 40
0.1666666666666667
 40
0.1666666666666667
 40
0.1666666666666667
 40
0.25
 40
0.25
 40
0.25
 40
0.25
 40
0.3333333333333333
 40
0.3333333333333333
 40
0.3333333333333333
 40
0.3333333333333333
 40
0.4166666666666666
 40
0.4166666666666666
 40
0.4166666666666666
 40
0.4166666666666666
 40
0.4999999999999999
 40
0.4999999999999999
 40
0.4999999999999999
 40
0.4999999999999999
 40
0.5833333333333333
 40
0.5833333333333333
 40
0.5833333333333333
 40
0.5833333333333333
 40
0.6666666666666666
 40
0.6666666666666666
 40
0.6666666666666666
 40
0.6666666666666666
 40
0.75
 40
0.75
 40
0.75
 40
0.75
 40
0.8333333333333334
 40
0.8333333333333334
 40
0.8333333333333334
 40
0.8333333333333334
 40
0.9166666666666667
 40
0.9166666666666667
 40
0.9166666666666667
 40
0.9166666666666667
 40
1.0
 40
1.0
 40
1.0
 40
1.0
 10
-73.684200000000004
 20
18.805
 30
0.0
 10
-74.344800000000006
 20
18.805
 30
0.0
 10
-75.018000000000001
 20
18.903300000000002
 30
0.0
 10
-75.700400000000002
 20
19.099800000000002
 30
0.0
 10
-75.700400000000002
 20
19.099800000000002
 30
0.0
 10
-76.3827
 20
19.298200000000001
 30
0.0
 10
-76.9268
 20
19.516500000000001
 30
0.0
 10
-77.336200000000005
 20
19.758500000000002
 30
0.0
 10
-77.336200000000005
 20
19.758500000000002
 30
0.0
 10
-77.74560000000001
 20
20.000500000000002
 30
0.0
 10
-78.06410000000001
 20
20.2516
 30
0.0
 10
-78.295100000000005
 20
20.510000000000002
 30
0.0
 10
-78.295100000000005
 20
20.510000000000002
 30
0.0
 10
-78.526200000000003
 20
20.770200000000003
 30
0.0
 10
-78.697299999999998
 20
21.025000000000002
 30
0.0
 10
-78.804600000000008
 20
21.2761
 30
0.0
 10
-78.804600000000008
 20
21.2761
 30
0.0
 10
-78.913800000000009
 20
21.525400000000001
 30
0.0
 10
-78.968400000000003
 20
21.803800000000003
 30
0.0
 10
-78.968400000000003
 20
22.109500000000001
 30
0.0
 10
-78.968400000000003
 20
22.109500000000001
 30
0.0
 10
-78.968400000000003
 20
22.706300000000002
 30
0.0
 10
-78.744600000000005
 20
23.204900000000002
 30
0.0
 10
-78.300600000000003
 20
23.6052
 30
0.0
 10
-78.300600000000003
 20
23.6052
 30
0.0
 10
-77.8566
 20
24.005500000000001
 30
0.0
 10
-77.216099999999997
 20
24.2057
 30
0.0
 10
-76.377300000000005
 20
24.2057
 30
0.0
 10
-76.377300000000005
 20
24.2057
 30
0.0
 10
-75.513000000000005
 20
24.2057
 30
0.0
 10
-74.657700000000006
 20
24.0655
 30
0.0
 10
-73.813400000000001
 20
23.789000000000001
 30
0.0
 10
-73.813400000000001
 20
23.789000000000001
 30
0.0
 10
-72.8108
 20
23.461400000000001
 30
0.0
 10
-72.059300000000007
 20
23.006500000000003
 30
0.0
 10
-71.557100000000005
 20
22.424300000000002
 30
0.0
 10
-71.557100000000005
 20
22.424300000000002
 30
0.0
 10
-71.1768
 20
21.976600000000001
 30
0.0
 10
-70.9876
 20
21.467100000000002
 30
0.0
 10
-70.9876
 20
20.894000000000002
 30
0.0
 10
-70.9876
 20
20.894000000000002
 30
0.0
 10
-70.9876
 20
20.308
 30
0.0
 10
-71.216800000000006
 20
19.813100000000002
 30
0.0
 10
-71.677199999999999
 20
19.409100000000002
 30
0.0
 10
-71.677199999999999
 20
19.409100000000002
 30
0.0
 10
-72.137600000000006
 20
19.007000000000001
 30
0.0
 10
-72.807200000000009
 20
18.805
 30
0.0
 10
-73.684200000000004
 20
18.805
 30
0.0
  0
SPLINE
  5
2A
100
AcDbEntity
  8
Ebene 1
100
AcDbSpline
210
0.0
220
0.0
230
1.0
 70
     1
 71
     3
 72
    48
 73
    44
 74
     0
 42
0.0000000001
 43
0.0000000001
 40
0.0
 40
0.0
 40
0.0
 40
0.0
 40
0.0909090909090909
 40
0.0909090909090909
 40
0.0909090909090909
 40
0.0909090909090909
 40
0.1818181818181818
 40
0.1818181818181818
 40
0.1818181818181818
 40
0.1818181818181818
 40
0.2727272727272727
 40
0.2727272727272727
 40
0.2727272727272727
 40
0.2727272727272727
 40
0.3636363636363637
 40
0.3636363636363637
 40
0.3636363636363637
 40
0.3636363636363637
 40
0.4545454545454546
 40
0.4545454545454546
 40
0.4545454545454546
 40
0.4545454545454546
 40
0.5454545454545455
 40
0.5454545454545455
 40
0.5454545454545455
 40
0.5454545454545455
 40
0.6363636363636365
 40
0.6363636363636365
 40
0.6363636363636365
 40
0.6363636363636365
 40
0.7272727272727274
 40
0.7272727272727274
 40
0.7272727272727274
 40
0.7272727272727274
 40
0.8181818181818183
 40
0.8181818181818183
 40
0.8181818181818183
 40
0.8181818181818183
 40
0.9090909090909093
 40
0.9090909090909093
 40
0.9090909090909093
 40
0.9090909090909093
 40
1.0
 40
1.0
 40
1.0
 40
1.0
 10
-73.438600000000008
 20
19.738500000000002
 30
0.0
 10
-72.960000000000008
 20
19.738500000000002
 30
0.0
 10
-72.5852
 20
19.816700000000001
 30
0.0
 10
-72.31410000000001
 20
19.976900000000001
 30
0.0
 10
-72.31410000000001
 20
19.976900000000001
 30
0.0
 10
-71.941000000000003
 20
20.1934
 30
0.0
 10
-71.755400000000009
 20
20.515499999999999
 30
0.0
 10
-71.755400000000009
 20
20.943100000000001
 30
0.0
 10
-71.755400000000009
 20
20.943100000000001
 30
0.0
 10
-71.755400000000009
 20
21.316100000000002
 30
0.0
 10
-71.922899999999998
 20
21.654600000000002
 30
0.0
 10
-72.261300000000006
 20
21.9603
 30
0.0
 10
-72.261300000000006
 20
21.9603
 30
0.0
 10
-72.738
 20
22.400600000000001
 30
0.0
 10
-73.435000000000002
 20
22.733600000000003
 30
0.0
 10
-74.35390000000001
 20
22.9556
 30
0.0
 10
-74.35390000000001
 20
22.9556
 30
0.0
 10
-75.272800000000004
 20
23.177600000000002
 30
0.0
 10
-76.022400000000005
 20
23.288600000000002
 30
0.0
 10
-76.606499999999997
 20
23.288600000000002
 30
0.0
 10
-76.606499999999997
 20
23.288600000000002
 30
0.0
 10
-77.167000000000002
 20
23.288600000000002
 30
0.0
 10
-77.572800000000001
 20
23.1812
 30
0.0
 10
-77.822000000000003
 20
22.964700000000001
 30
0.0
 10
-77.822000000000003
 20
22.964700000000001
 30
0.0
 10
-78.069500000000005
 20
22.75
 30
0.0
 10
-78.195100000000011
 20
22.4679
 30
0.0
 10
-78.195100000000011
 20
22.114900000000002
 30
0.0
 10
-78.195100000000011
 20
22.114900000000002
 30
0.0
 10
-78.195100000000011
 20
21.860200000000003
 30
0.0
 10
-78.129600000000011
 20
21.620000000000001
 30
0.0
 10
-77.996700000000004
 20
21.398
 30
0.0
 10
-77.996700000000004
 20
21.398
 30
0.0
 10
-77.865700000000004
 20
21.176000000000002
 30
0.0
 10
-77.640100000000004
 20
20.963100000000001
 30
0.0
 10
-77.319800000000001
 20
20.761100000000003
 30
0.0
 10
-77.319800000000001
 20
20.761100000000003
 30
0.0
 10
-76.868600000000001
 20
20.473600000000001
 30
0.0
 10
-76.1935
 20
20.2225
 30
0.0
 10
-75.294600000000003
 20
20.009600000000002
 30
0.0
 10
-75.294600000000003
 20
20.009600000000002
 30
0.0
 10
-74.526700000000005
 20
19.8277
 30
0.0
 10
-73.908100000000005
 20
19.738500000000002
 30
0.0
 10
-73.438600000000008
 20
19.738500000000002
 30
0.0
  0
SPLINE
  5
2B
100
AcDbEntity
  8
Ebene 1
100
AcDbSpline
210
0.0
220
0.0
230
1.0
 70
     1
 71
     3
 72
    52
 73
    48
 74
     0
 42
0.0000000001
 43
0.0000000001
 40
0.0
 40
0.0
 40
0.0
 40
0.0
 40
0.0833333333333333
 40
0.0833333333333333
 40
0.0833333333333333
 40
0.0833333333333333
 40
0.1666666666666667
 40
0.1666666666666667
 40
0.1666666666666667
 40
0.1666666666666667
 40
0.25
 40
0.25
 40
0.25
 40
0.25
 40
0.3333333333333333
 40
0.3333333333333333
 40
0.3333333333333333
 40
0.3333333333333333
 40
0.4166666666666666
 40
0.4166666666666666
 40
0.4166666666666666
 40
0.4166666666666666
 40
0.4999999999999999
 40
0.4999999999999999
 40
0.4999999999999999
 40
0.4999999999999999
 40
0.5833333333333333
 40
0.5833333333333333
 40
0.5833333333333333
 40
0.5833333333333333
 40
0.6666666666666666
 40
0.6666666666666666
 40
0.6666666666666666
 40
0.6666666666666666
 40
0.75
 40
0.75
 40
0.75
 40
0.75
 40
0.8333333333333334
 40
0.8333333333333334
 40
0.8333333333333334
 40
0.8333333333333334
 40
0.9166666666666667
 40
0.9166666666666667
 40
0.9166666666666667
 40
0.9166666666666667
 40
1.0
 40
1.0
 40
1.0
 40
1.0
 10
7.2285000000000004
 20
5.7000000000000002
 30
0.0
 10
7.2285000000000004
 20
5.7000000000000002
 30
0.0
 10
-0.5868
 20
7.3304
 30
0.0
 10
-0.5868
 20
7.3304
 30
0.0
 10
-0.5868
 20
7.3304
 30
0.0
 10
-0.5868
 20
7.3304
 30
0.0
 10
-0.5868
 20
9.6867999999999999
 30
0.0
 10
-0.5868
 20
9.6867999999999999
 30
0.0
 10
-0.5868
 20
9.6867999999999999
 30
0.0
 10
-0.5868
 20
10.252700000000001
 30
0.0
 10
-0.5449000000000001
 20
10.684000000000001
 30
0.0
 10
-0.4648000000000001
 20
10.9824
 30
0.0
 10
-0.4648000000000001
 20
10.9824
 30
0.0
 10
-0.3538
 20
11.408200000000001
 30
0.0
 10
-0.1573
 20
11.7721
 30
0.0
 10
0.1247
 20
12.076000000000001
 30
0.0
 10
0.1247
 20
12.076000000000001
 30
0.0
 10
0.4068
 20
12.378
 30
0.0
 10
0.7598
 20
12.605500000000001
 30
0.0
 10
1.1837
 20
12.7583
 30
0.0
 10
1.1837
 20
12.7583
 30
0.0
 10
1.6059000000000001
 20
12.9094
 30
0.0
 10
2.0808
 20
12.985800000000001
 30
0.0
 10
2.6067
 20
12.985800000000001
 30
0.0
 10
2.6067
 20
12.985800000000001
 30
0.0
 10
3.2363
 20
12.985800000000001
 30
0.0
 10
3.8094000000000001
 20
12.891200000000001
 30
0.0
 10
4.3262
 20
12.7019
 30
0.0
 10
4.3262
 20
12.7019
 30
0.0
 10
4.843
 20
12.510900000000001
 30
0.0
 10
5.2979000000000003
 20
12.263400000000001
 30
0.0
 10
5.6909000000000001
 20
11.9559
 30
0.0
 10
5.6909000000000001
 20
11.9559
 30
0.0
 10
6.0840000000000005
 20
11.648400000000001
 30
0.0
 10
6.3915000000000006
 20
11.3263
 30
0.0
 10
6.6135000000000002
 20
10.989700000000001
 30
0.0
 10
6.6135000000000002
 20
10.989700000000001
 30
0.0
 10
6.8355000000000006
 20
10.654900000000001
 30
0.0
 10
6.9992000000000001
 20
10.256400000000001
 30
0.0
 10
7.1066000000000003
 20
9.7995999999999999
 30
0.0
 10
7.1066000000000003
 20
9.7995999999999999
 30
0.0
 10
7.1885000000000003
 20
9.4503000000000004
 30
0.0
 10
7.2285000000000004
 20
9.0227000000000004
 30
0.0
 10
7.2285000000000004
 20
8.5132000000000012
 30
0.0
 10
7.2285000000000004
 20
8.5132000000000012
 30
0.0
 10
7.2285000000000004
 20
8.5132000000000012
 30
0.0
 10
7.2285000000000004
 20
5.7000000000000002
 30
0.0
 10
7.2285000000000004
 20
5.7000000000000002
 30
0.0
  0
SPLINE
  5
2C
100
AcDbEntity
  8
Ebene 1
100
AcDbSpline
210
0.0
220
0.0
230
1.0
 70
     1
 71
     3
 72
    48
 73
    44
 74
     0
 42
0.0000000001
 43
0.0000000001
 40
0.0
 40
0.0
 40
0.0
 40
0.0
 40
0.0909090909090909
 40
0.0909090909090909
 40
0.0909090909090909
 40
0.0909090909090909
 40
0.1818181818181818
 40
0.1818181818181818
 40
0.1818181818181818
 40
0.1818181818181818
 40
0.2727272727272727
 40
0.2727272727272727
 40
0.2727272727272727
 40
0.2727272727272727
 40
0.3636363636363637
 40
0.3636363636363637
 40
0.3636363636363637
 40
0.3636363636363637
 40
0.4545454545454546
 40
0.4545454545454546
 40
0.4545454545454546
 40
0.4545454545454546
 40
0.5454545454545455
 40
0.5454545454545455
 40
0.5454545454545455
 40
0.5454545454545455
 40
0.6363636363636365
 40
0.6363636363636365
 40
0.6363636363636365
 40
0.6363636363636365
 40
0.7272727272727274
 40
0.7272727272727274
 40
0.7272727272727274
 40
0.7272727272727274
 40
0.8181818181818183
 40
0.8181818181818183
 40
0.8181818181818183
 40
0.8181818181818183
 40
0.9090909090909093
 40
0.9090909090909093
 40
0.9090909090909093
 40
0.9090909090909093
 40
1.0
 40
1.0
 40
1.0
 40
1.0
 10
6.3442000000000007
 20
6.9301000000000004
 30
0.0
 10
6.3442000000000007
 20
6.9301000000000004
 30
0.0
 10
6.3442000000000007
 20
8.1674000000000007
 30
0.0
 10
6.3442000000000007
 20
8.1674000000000007
 30
0.0
 10
6.3442000000000007
 20
8.1674000000000007
 30
0.0
 10
6.3442000000000007
 20
8.7261000000000006
 30
0.0
 10
6.2914000000000003
 20
9.2210000000000001
 30
0.0
 10
6.1895000000000007
 20
9.6540999999999997
 30
0.0
 10
6.1895000000000007
 20
9.6540999999999997
 30
0.0
 10
6.1257999999999999
 20
9.9252000000000002
 30
0.0
 10
6.0312000000000001
 20
10.1563
 30
0.0
 10
5.9056000000000006
 20
10.347300000000001
 30
0.0
 10
5.9056000000000006
 20
10.347300000000001
 30
0.0
 10
5.7473000000000001
 20
10.600300000000001
 30
0.0
 10
5.5344000000000007
 20
10.829500000000001
 30
0.0
 10
5.2724000000000002
 20
11.0352
 30
0.0
 10
5.2724000000000002
 20
11.0352
 30
0.0
 10
4.923
 20
11.3063
 30
0.0
 10
4.5264000000000006
 20
11.521000000000001
 30
0.0
 10
4.0806000000000004
 20
11.6829
 30
0.0
 10
4.0806000000000004
 20
11.6829
 30
0.0
 10
3.6348000000000003
 20
11.844900000000001
 30
0.0
 10
3.1271
 20
11.924900000000001
 30
0.0
 10
2.5594000000000001
 20
11.924900000000001
 30
0.0
 10
2.5594000000000001
 20
11.924900000000001
 30
0.0
 10
1.9261000000000001
 20
11.924900000000001
 30
0.0
 10
1.4403000000000001
 20
11.815800000000001
 30
0.0
 10
1.1000000000000001
 20
11.595600000000001
 30
0.0
 10
1.1000000000000001
 20
11.595600000000001
 30
0.0
 10
0.7616000000000001
 20
11.375400000000001
 30
0.0
 10
0.5359
 20
11.093400000000001
 30
0.0
 10
0.4268
 20
10.7531
 30
0.0
 10
0.4268
 20
10.7531
 30
0.0
 10
0.3449
 20
10.500200000000001
 30
0.0
 10
0.303
 20
10.107100000000001
 30
0.0
 10
0.303
 20
9.5739999999999998
 30
0.0
 10
0.303
 20
9.5739999999999998
 30
0.0
 10
0.303
 20
9.5739999999999998
 30
0.0
 10
0.303
 20
8.194700000000001
 30
0.0
 10
0.303
 20
8.194700000000001
 30
0.0
 10
0.303
 20
8.194700000000001
 30
0.0
 10
0.303
 20
8.194700000000001
 30
0.0
 10
6.3442000000000007
 20
6.9301000000000004
 30
0.0
 10
6.3442000000000007
 20
6.9301000000000004
 30
0.0
  0
SPLINE
  5
2D
100
AcDbEntity
  8
Ebene 1
100
AcDbSpline
210
0.0
220
0.0
230
1.0
 70
     1
 71
     3
 72
    64
 73
    60
 74
     0
 42
0.0000000001
 43
0.0000000001
 40
0.0
 40
0.0
 40
0.0
 40
0.0
 40
0.0666666666666667
 40
0.0666666666666667
 40
0.0666666666666667
 40
0.0666666666666667
 40
0.1333333333333333
 40
0.1333333333333333
 40
0.1333333333333333
 40
0.1333333333333333
 40
0.2
 40
0.2
 40
0.2
 40
0.2
 40
0.2666666666666667
 40
0.2666666666666667
 40
0.2666666666666667
 40
0.2666666666666667
 40
0.3333333333333333
 40
0.3333333333333333
 40
0.3333333333333333
 40
0.3333333333333333
 40
0.4
 40
0.4
 40
0.4
 40
0.4
 40
0.4666666666666666
 40
0.4666666666666666
 40
0.4666666666666666
 40
0.4666666666666666
 40
0.5333333333333333
 40
0.5333333333333333
 40
0.5333333333333333
 40
0.5333333333333333
 40
0.6
 40
0.6
 40
0.6
 40
0.6
 40
0.6666666666666666
 40
0.6666666666666666
 40
0.6666666666666666
 40
0.6666666666666666
 40
0.7333333333333333
 40
0.7333333333333333
 40
0.7333333333333333
 40
0.7333333333333333
 40
0.7999999999999999
 40
0.7999999999999999
 40
0.7999999999999999
 40
0.7999999999999999
 40
0.8666666666666666
 40
0.8666666666666666
 40
0.8666666666666666
 40
0.8666666666666666
 40
0.9333333333333332
 40
0.9333333333333332
 40
0.9333333333333332
 40
0.9333333333333332
 40
1.0
 40
1.0
 40
1.0
 40
1.0
 10
7.2285000000000004
 20
13.6317
 30
0.0
 10
7.2285000000000004
 20
13.6317
 30
0.0
 10
-0.5868
 20
15.267600000000002
 30
0.0
 10
-0.5868
 20
15.267600000000002
 30
0.0
 10
-0.5868
 20
15.267600000000002
 30
0.0
 10
-0.5868
 20
15.267600000000002
 30
0.0
 10
-0.5868
 20
16.281100000000002
 30
0.0
 10
-0.5868
 20
16.281100000000002
 30
0.0
 10
-0.5868
 20
16.281100000000002
 30
0.0
 10
-0.5868
 20
16.281100000000002
 30
0.0
 10
2.3446000000000002
 20
17.598500000000001
 30
0.0
 10
2.3446000000000002
 20
17.598500000000001
 30
0.0
 10
2.3446000000000002
 20
17.598500000000001
 30
0.0
 10
3.2417000000000002
 20
17.998799999999999
 30
0.0
 10
3.9950000000000001
 20
18.317299999999999
 30
0.0
 10
4.6063999999999998
 20
18.552
 30
0.0
 10
4.6063999999999998
 20
18.552
 30
0.0
 10
4.9613000000000005
 20
18.686600000000002
 30
0.0
 10
5.4416000000000002
 20
18.8431
 30
0.0
 10
6.0457000000000001
 20
19.0215
 30
0.0
 10
6.0457000000000001
 20
19.0215
 30
0.0
 10
5.3870000000000005
 20
19.117900000000002
 30
0.0
 10
4.7083000000000004
 20
19.238
 30
0.0
 10
4.0078000000000005
 20
19.383600000000001
 30
0.0
 10
4.0078000000000005
 20
19.383600000000001
 30
0.0
 10
4.0078000000000005
 20
19.383600000000001
 30
0.0
 10
-0.5868
 20
20.342500000000001
 30
0.0
 10
-0.5868
 20
20.342500000000001
 30
0.0
 10
-0.5868
 20
20.342500000000001
 30
0.0
 10
-0.5868
 20
20.342500000000001
 30
0.0
 10
-0.5868
 20
21.361499999999999
 30
0.0
 10
-0.5868
 20
21.361499999999999
 30
0.0
 10
-0.5868
 20
21.361499999999999
 30
0.0
 10
-0.5868
 20
21.361499999999999
 30
0.0
 10
7.2285000000000004
 20
19.731100000000001
 30
0.0
 10
7.2285000000000004
 20
19.731100000000001
 30
0.0
 10
7.2285000000000004
 20
19.731100000000001
 30
0.0
 10
7.2285000000000004
 20
19.731100000000001
 30
0.0
 10
7.2285000000000004
 20
18.695700000000002
 30
0.0
 10
7.2285000000000004
 20
18.695700000000002
 30
0.0
 10
7.2285000000000004
 20
18.695700000000002
 30
0.0
 10
7.2285000000000004
 20
18.695700000000002
 30
0.0
 10
2.714
 20
16.756
 30
0.0
 10
2.714
 20
16.756
 30
0.0
 10
2.714
 20
16.756
 30
0.0
 10
1.917
 20
16.410299999999999
 30
0.0
 10
1.2147000000000001
 20
16.142800000000001
 30
0.0
 10
0.6069
 20
15.949900000000001
 30
0.0
 10
0.6069
 20
15.949900000000001
 30
0.0
 10
1.1164000000000001
 20
15.897200000000002
 30
0.0
 10
1.7387000000000001
 20
15.7935
 30
0.0
 10
2.4793000000000003
 20
15.640600000000001
 30
0.0
 10
2.4793000000000003
 20
15.640600000000001
 30
0.0
 10
2.4793000000000003
 20
15.640600000000001
 30
0.0
 10
7.2285000000000004
 20
14.650700000000001
 30
0.0
 10
7.2285000000000004
 20
14.650700000000001
 30
0.0
 10
7.2285000000000004
 20
14.650700000000001
 30
0.0
 10
7.2285000000000004
 20
14.650700000000001
 30
0.0
 10
7.2285000000000004
 20
13.6317
 30
0.0
 10
7.2285000000000004
 20
13.6317
 30
0.0
  0
SPLINE
  5
2E
100
AcDbEntity
  8
Ebene 1
100
AcDbSpline
210
0.0
220
0.0
230
1.0
 70
     1
 71
     3
 72
    40
 73
    36
 74
     0
 42
0.0000000001
 43
0.0000000001
 40
0.0
 40
0.0
 40
0.0
 40
0.0
 40
0.1111111111111111
 40
0.1111111111111111
 40
0.1111111111111111
 40
0.1111111111111111
 40
0.2222222222222222
 40
0.2222222222222222
 40
0.2222222222222222
 40
0.2222222222222222
 40
0.3333333333333333
 40
0.3333333333333333
 40
0.3333333333333333
 40
0.3333333333333333
 40
0.4444444444444444
 40
0.4444444444444444
 40
0.4444444444444444
 40
0.4444444444444444
 40
0.5555555555555556
 40
0.5555555555555556
 40
0.5555555555555556
 40
0.5555555555555556
 40
0.6666666666666667
 40
0.6666666666666667
 40
0.6666666666666667
 40
0.6666666666666667
 40
0.7777777777777779
 40
0.7777777777777779
 40
0.7777777777777779
 40
0.7777777777777779
 40
0.8888888888888891
 40
0.8888888888888891
 40
0.8888888888888891
 40
0.8888888888888891
 40
1.0
 40
1.0
 40
1.0
 40
1.0
 10
7.2285000000000004
 20
23.610500000000002
 30
0.0
 10
7.2285000000000004
 20
23.610500000000002
 30
0.0
 10
1.3275000000000001
 20
24.847900000000003
 30
0.0
 10
1.3275000000000001
 20
24.847900000000003
 30
0.0
 10
1.3275000000000001
 20
24.847900000000003
 30
0.0
 10
1.746
 20
24.314700000000002
 30
0.0
 10
2.0826000000000002
 20
23.565000000000001
 30
0.0
 10
2.3355999999999999
 20
22.598800000000001
 30
0.0
 10
2.3355999999999999
 20
22.598800000000001
 30
0.0
 10
2.3355999999999999
 20
22.598800000000001
 30
0.0
 10
1.4603000000000002
 20
22.779
 30
0.0
 10
1.4603000000000002
 20
22.779
 30
0.0
 10
1.4603000000000002
 20
22.779
 30
0.0
 10
1.2693000000000001
 20
23.2593
 30
0.0
 10
1.0181
 20
23.732400000000002
 30
0.0
 10
0.7088
 20
24.200100000000003
 30
0.0
 10
0.7088
 20
24.200100000000003
 30
0.0
 10
0.3995
 20
24.6677
 30
0.0
 10
0.1302
 20
25.018900000000002
 30
0.0
 10
-0.1009
 20
25.253600000000002
 30
0.0
 10
-0.1009
 20
25.253600000000002
 30
0.0
 10
-0.2428
 20
25.395600000000002
 30
0.0
 10
-0.4157
 20
25.530200000000001
 30
0.0
 10
-0.6195000000000001
 20
25.657600000000002
 30
0.0
 10
-0.6195000000000001
 20
25.657600000000002
 30
0.0
 10
-0.6195000000000001
 20
25.657600000000002
 30
0.0
 10
-0.6195000000000001
 20
26.218
 30
0.0
 10
-0.6195000000000001
 20
26.218
 30
0.0
 10
-0.6195000000000001
 20
26.218
 30
0.0
 10
-0.6195000000000001
 20
26.218
 30
0.0
 10
7.2285000000000004
 20
24.5822
 30
0.0
 10
7.2285000000000004
 20
24.5822
 30
0.0
 10
7.2285000000000004
 20
24.5822
 30
0.0
 10
7.2285000000000004
 20
24.5822
 30
0.0
 10
7.2285000000000004
 20
23.610500000000002
 30
0.0
 10
7.2285000000000004
 20
23.610500000000002
 30
0.0
  0
SPLINE
  5
2F
100
AcDbEntity
  8
Ebene 1
100
AcDbSpline
210
0.0
220
0.0
230
1.0
 70
     1
 71
     3
 72
    52
 73
    48
 74
     0
 42
0.0000000001
 43
0.0000000001
 40
0.0
 40
0.0
 40
0.0
 40
0.0
 40
0.0833333333333333
 40
0.0833333333333333
 40
0.0833333333333333
 40
0.0833333333333333
 40
0.1666666666666667
 40
0.1666666666666667
 40
0.1666666666666667
 40
0.1666666666666667
 40
0.25
 40
0.25
 40
0.25
 40
0.25
 40
0.3333333333333333
 40
0.3333333333333333
 40
0.3333333333333333
 40
0.3333333333333333
 40
0.4166666666666666
 40
0.4166666666666666
 40
0.4166666666666666
 40
0.4166666666666666
 40
0.4999999999999999
 40
0.4999999999999999
 40
0.4999999999999999
 40
0.4999999999999999
 40
0.5833333333333333
 40
0.5833333333333333
 40
0.5833333333333333
 40
0.5833333333333333
 40
0.6666666666666666
 40
0.6666666666666666
 40
0.6666666666666666
 40
0.6666666666666666
 40
0.75
 40
0.75
 40
0.75
 40
0.75
 40
0.8333333333333334
 40
0.8333333333333334
 40
0.8333333333333334
 40
0.8333333333333334
 40
0.9166666666666667
 40
0.9166666666666667
 40
0.9166666666666667
 40
0.9166666666666667
 40
1.0
 40
1.0
 40
1.0
 40
1.0
 10
4.6646999999999998
 20
27.828400000000002
 30
0.0
 10
4.0041000000000002
 20
27.828400000000002
 30
0.0
 10
3.3309000000000002
 20
27.9267
 30
0.0
 10
2.6485000000000003
 20
28.123200000000001
 30
0.0
 10
2.6485000000000003
 20
28.123200000000001
 30
0.0
 10
1.9662000000000002
 20
28.3216
 30
0.0
 10
1.4221000000000001
 20
28.539900000000003
 30
0.0
 10
1.0127000000000002
 20
28.7819
 30
0.0
 10
1.0127000000000002
 20
28.7819
 30
0.0
 10
0.6033000000000001
 20
29.023900000000001
 30
0.0
 10
0.2848
 20
29.275000000000002
 30
0.0
 10
0.0538
 20
29.5334
 30
0.0
 10
0.0538
 20
29.5334
 30
0.0
 10
-0.1773
 20
29.793600000000001
 30
0.0
 10
-0.3484
 20
30.048400000000001
 30
0.0
 10
-0.4557000000000001
 20
30.299500000000002
 30
0.0
 10
-0.4557000000000001
 20
30.299500000000002
 30
0.0
 10
-0.5649000000000001
 20
30.5488
 30
0.0
 10
-0.6195000000000001
 20
30.827200000000001
 30
0.0
 10
-0.6195000000000001
 20
31.132900000000003
 30
0.0
 10
-0.6195000000000001
 20
31.132900000000003
 30
0.0
 10
-0.6195000000000001
 20
31.729700000000001
 30
0.0
 10
-0.3957
 20
32.228300000000004
 30
0.0
 10
0.0483
 20
32.628599999999999
 30
0.0
 10
0.0483
 20
32.628599999999999
 30
0.0
 10
0.4923
 20
33.0289
 30
0.0
 10
1.1328
 20
33.229100000000003
 30
0.0
 10
1.9716
 20
33.229100000000003
 30
0.0
 10
1.9716
 20
33.229100000000003
 30
0.0
 10
2.8359000000000001
 20
33.229100000000003
 30
0.0
 10
3.6912000000000003
 20
33.088900000000002
 30
0.0
 10
4.5354999999999999
 20
32.812400000000004
 30
0.0
 10
4.5354999999999999
 20
32.812400000000004
 30
0.0
 10
5.5381
 20
32.4848
 30
0.0
 10
6.2896000000000001
 20
32.029900000000005
 30
0.0
 10
6.7918000000000003
 20
31.447700000000001
 30
0.0
 10
6.7918000000000003
 20
31.447700000000001
 30
0.0
 10
7.1721000000000004
 20
31.0
 30
0.0
 10
7.3613
 20
30.490500000000001
 30
0.0
 10
7.3613
 20
29.917400000000001
 30
0.0
 10
7.3613
 20
29.917400000000001
 30
0.0
 10
7.3613
 20
29.331400000000002
 30
0.0
 10
7.1321000000000003
 20
28.836500000000001
 30
0.0
 10
6.6717000000000004
 20
28.432500000000001
 30
0.0
 10
6.6717000000000004
 20
28.432500000000001
 30
0.0
 10
6.2113000000000005
 20
28.0304
 30
0.0
 10
5.5417000000000005
 20
27.828400000000002
 30
0.0
 10
4.6646999999999998
 20
27.828400000000002
 30
0.0
  0
SPLINE
  5
30
100
AcDbEntity
  8
Ebene 1
100
AcDbSpline
210
0.0
220
0.0
230
1.0
 70
     1
 71
     3
 72
    48
 73
    44
 74
     0
 42
0.0000000001
 43
0.0000000001
 40
0.0
 40
0.0
 40
0.0
 40
0.0
 40
0.0909090909090909
 40
0.0909090909090909
 40
0.0909090909090909
 40
0.0909090909090909
 40
0.1818181818181818
 40
0.1818181818181818
 40
0.1818181818181818
 40
0.1818181818181818
 40
0.2727272727272727
 40
0.2727272727272727
 40
0.2727272727272727
 40
0.2727272727272727
 40
0.3636363636363637
 40
0.3636363636363637
 40
0.3636363636363637
 40
0.3636363636363637
 40
0.4545454545454546
 40
0.4545454545454546
 40
0.4545454545454546
 40
0.4545454545454546
 40
0.5454545454545455
 40
0.5454545454545455
 40
0.5454545454545455
 40
0.5454545454545455
 40
0.6363636363636365
 40
0.6363636363636365
 40
0.6363636363636365
 40
0.6363636363636365
 40
0.7272727272727274
 40
0.7272727272727274
 40
0.7272727272727274
 40
0.7272727272727274
 40
0.8181818181818183
 40
0.8181818181818183
 40
0.8181818181818183
 40
0.8181818181818183
 40
0.9090909090909093
 40
0.9090909090909093
 40
0.9090909090909093
 40
0.9090909090909093
 40
1.0
 40
1.0
 40
1.0
 40
1.0
 10
4.9103000000000003
 20
28.761900000000001
 30
0.0
 10
5.3889000000000005
 20
28.761900000000001
 30
0.0
 10
5.7637
 20
28.8401
 30
0.0
 10
6.0348000000000006
 20
29.000300000000003
 30
0.0
 10
6.0348000000000006
 20
29.000300000000003
 30
0.0
 10
6.4079000000000006
 20
29.216800000000003
 30
0.0
 10
6.5935000000000006
 20
29.538900000000002
 30
0.0
 10
6.5935000000000006
 20
29.9665
 30
0.0
 10
6.5935000000000006
 20
29.9665
 30
0.0
 10
6.5935000000000006
 20
30.339500000000001
 30
0.0
 10
6.4260000000000002
 20
30.678000000000001
 30
0.0
 10
6.0876000000000001
 20
30.983700000000002
 30
0.0
 10
6.0876000000000001
 20
30.983700000000002
 30
0.0
 10
5.6109
 20
31.424000000000003
 30
0.0
 10
4.9138999999999999
 20
31.757000000000001
 30
0.0
 10
3.9950000000000001
 20
31.979000000000003
 30
0.0
 10
3.9950000000000001
 20
31.979000000000003
 30
0.0
 10
3.0761000000000003
 20
32.201000000000001
 30
0.0
 10
2.3265000000000002
 20
32.312000000000005
 30
0.0
 10
1.7424000000000002
 20
32.312000000000005
 30
0.0
 10
1.7424000000000002
 20
32.312000000000005
 30
0.0
 10
1.1819
 20
32.312000000000005
 30
0.0
 10
0.7761
 20
32.204599999999999
 30
0.0
 10
0.5269
 20
31.988100000000003
 30
0.0
 10
0.5269
 20
31.988100000000003
 30
0.0
 10
0.2794
 20
31.773400000000002
 30
0.0
 10
0.1538
 20
31.491300000000003
 30
0.0
 10
0.1538
 20
31.138300000000001
 30
0.0
 10
0.1538
 20
31.138300000000001
 30
0.0
 10
0.1538
 20
30.883600000000001
 30
0.0
 10
0.2193
 20
30.6434
 30
0.0
 10
0.3522
 20
30.421400000000002
 30
0.0
 10
0.3522
 20
30.421400000000002
 30
0.0
 10
0.4832
 20
30.199400000000001
 30
0.0
 10
0.7088
 20
29.986500000000003
 30
0.0
 10
1.0291000000000001
 20
29.784500000000001
 30
0.0
 10
1.0291000000000001
 20
29.784500000000001
 30
0.0
 10
1.4803000000000002
 20
29.497
 30
0.0
 10
2.1554000000000002
 20
29.245900000000002
 30
0.0
 10
3.0543
 20
29.033000000000001
 30
0.0
 10
3.0543
 20
29.033000000000001
 30
0.0
 10
3.8222
 20
28.851100000000002
 30
0.0
 10
4.4408000000000003
 20
28.761900000000001
 30
0.0
 10
4.9103000000000003
 20
28.761900000000001
 30
0.0
  0
SPLINE
  5
31
100
AcDbEntity
  8
Ebene 1
100
AcDbSpline
210
0.0
220
0.0
230
1.0
 70
     1
 71
     3
 72
    52
 73
    48
 74
     0
 42
0.0000000001
 43
0.0000000001
 40
0.0
 40
0.0
 40
0.0
 40
0.0
 40
0.0833333333333333
 40
0.0833333333333333
 40
0.0833333333333333
 40
0.0833333333333333
 40
0.1666666666666667
 40
0.1666666666666667
 40
0.1666666666666667
 40
0.1666666666666667
 40
0.25
 40
0.25
 40
0.25
 40
0.25
 40
0.3333333333333333
 40
0.3333333333333333
 40
0.3333333333333333
 40
0.3333333333333333
 40
0.4166666666666666
 40
0.4166666666666666
 40
0.4166666666666666
 40
0.4166666666666666
 40
0.4999999999999999
 40
0.4999999999999999
 40
0.4999999999999999
 40
0.4999999999999999
 40
0.5833333333333333
 40
0.5833333333333333
 40
0.5833333333333333
 40
0.5833333333333333
 40
0.6666666666666666
 40
0.6666666666666666
 40
0.6666666666666666
 40
0.6666666666666666
 40
0.75
 40
0.75
 40
0.75
 40
0.75
 40
0.8333333333333334
 40
0.8333333333333334
 40
0.8333333333333334
 40
0.8333333333333334
 40
0.9166666666666667
 40
0.9166666666666667
 40
0.9166666666666667
 40
0.9166666666666667
 40
1.0
 40
1.0
 40
1.0
 40
1.0
 10
4.6646999999999998
 20
33.900500000000001
 30
0.0
 10
4.0041000000000002
 20
33.900500000000001
 30
0.0
 10
3.3309000000000002
 20
33.998800000000003
 30
0.0
 10
2.6485000000000003
 20
34.195300000000003
 30
0.0
 10
2.6485000000000003
 20
34.195300000000003
 30
0.0
 10
1.9662000000000002
 20
34.393700000000003
 30
0.0
 10
1.4221000000000001
 20
34.612000000000002
 30
0.0
 10
1.0127000000000002
 20
34.853999999999999
 30
0.0
 10
1.0127000000000002
 20
34.853999999999999
 30
0.0
 10
0.6033000000000001
 20
35.096000000000004
 30
0.0
 10
0.2848
 20
35.347100000000005
 30
0.0
 10
0.0538
 20
35.605499999999999
 30
0.0
 10
0.0538
 20
35.605499999999999
 30
0.0
 10
-0.1773
 20
35.865700000000004
 30
0.0
 10
-0.3484
 20
36.1205
 30
0.0
 10
-0.4557000000000001
 20
36.371600000000001
 30
0.0
 10
-0.4557000000000001
 20
36.371600000000001
 30
0.0
 10
-0.5649000000000001
 20
36.620899999999999
 30
0.0
 10
-0.6195000000000001
 20
36.899300000000004
 30
0.0
 10
-0.6195000000000001
 20
37.204999999999998
 30
0.0
 10
-0.6195000000000001
 20
37.204999999999998
 30
0.0
 10
-0.6195000000000001
 20
37.8018
 30
0.0
 10
-0.3957
 20
38.300400000000003
 30
0.0
 10
0.0483
 20
38.700700000000005
 30
0.0
 10
0.0483
 20
38.700700000000005
 30
0.0
 10
0.4923
 20
39.100999999999999
 30
0.0
 10
1.1328
 20
39.301200000000001
 30
0.0
 10
1.9716
 20
39.301200000000001
 30
0.0
 10
1.9716
 20
39.301200000000001
 30
0.0
 10
2.8359000000000001
 20
39.301200000000001
 30
0.0
 10
3.6912000000000003
 20
39.161000000000001
 30
0.0
 10
4.5354999999999999
 20
38.884500000000003
 30
0.0
 10
4.5354999999999999
 20
38.884500000000003
 30
0.0
 10
5.5381
 20
38.556899999999999
 30
0.0
 10
6.2896000000000001
 20
38.102000000000004
 30
0.0
 10
6.7918000000000003
 20
37.519800000000004
 30
0.0
 10
6.7918000000000003
 20
37.519800000000004
 30
0.0
 10
7.1721000000000004
 20
37.072099999999999
 30
0.0
 10
7.3613
 20
36.562600000000003
 30
0.0
 10
7.3613
 20
35.9895
 30
0.0
 10
7.3613
 20
35.9895
 30
0.0
 10
7.3613
 20
35.403500000000001
 30
0.0
 10
7.1321000000000003
 20
34.9086
 30
0.0
 10
6.6717000000000004
 20
34.504600000000003
 30
0.0
 10
6.6717000000000004
 20
34.504600000000003
 30
0.0
 10
6.2113000000000005
 20
34.102499999999999
 30
0.0
 10
5.5417000000000005
 20
33.900500000000001
 30
0.0
 10
4.6646999999999998
 20
33.900500000000001
 30
0.0
  0
SPLINE
  5
32
100
AcDbEntity
  8
Ebene 1
100
AcDbSpline
210
0.0
220
0.0
230
1.0
 70
     1
 71
     3
 72
    48
 73
    44
 74
     0
 42
0.0000000001
 43
0.0000000001
 40
0.0
 40
0.0
 40
0.0
 40
0.0
 40
0.0909090909090909
 40
0.0909090909090909
 40
0.0909090909090909
 40
0.0909090909090909
 40
0.1818181818181818
 40
0.1818181818181818
 40
0.1818181818181818
 40
0.1818181818181818
 40
0.2727272727272727
 40
0.2727272727272727
 40
0.2727272727272727
 40
0.2727272727272727
 40
0.3636363636363637
 40
0.3636363636363637
 40
0.3636363636363637
 40
0.3636363636363637
 40
0.4545454545454546
 40
0.4545454545454546
 40
0.4545454545454546
 40
0.4545454545454546
 40
0.5454545454545455
 40
0.5454545454545455
 40
0.5454545454545455
 40
0.5454545454545455
 40
0.6363636363636365
 40
0.6363636363636365
 40
0.6363636363636365
 40
0.6363636363636365
 40
0.7272727272727274
 40
0.7272727272727274
 40
0.7272727272727274
 40
0.7272727272727274
 40
0.8181818181818183
 40
0.8181818181818183
 40
0.8181818181818183
 40
0.8181818181818183
 40
0.9090909090909093
 40
0.9090909090909093
 40
0.9090909090909093
 40
0.9090909090909093
 40
1.0
 40
1.0
 40
1.0
 40
1.0
 10
4.9103000000000003
 20
34.834000000000003
 30
0.0
 10
5.3889000000000005
 20
34.834000000000003
 30
0.0
 10
5.7637
 20
34.912199999999999
 30
0.0
 10
6.0348000000000006
 20
35.072400000000002
 30
0.0
 10
6.0348000000000006
 20
35.072400000000002
 30
0.0
 10
6.4079000000000006
 20
35.288899999999998
 30
0.0
 10
6.5935000000000006
 20
35.611000000000004
 30
0.0
 10
6.5935000000000006
 20
36.038600000000002
 30
0.0
 10
6.5935000000000006
 20
36.038600000000002
 30
0.0
 10
6.5935000000000006
 20
36.4116
 30
0.0
 10
6.4260000000000002
 20
36.750100000000003
 30
0.0
 10
6.0876000000000001
 20
37.055800000000005
 30
0.0
 10
6.0876000000000001
 20
37.055800000000005
 30
0.0
 10
5.6109
 20
37.496099999999998
 30
0.0
 10
4.9138999999999999
 20
37.829100000000004
 30
0.0
 10
3.9950000000000001
 20
38.051100000000005
 30
0.0
 10
3.9950000000000001
 20
38.051100000000005
 30
0.0
 10
3.0761000000000003
 20
38.273099999999999
 30
0.0
 10
2.3265000000000002
 20
38.384100000000004
 30
0.0
 10
1.7424000000000002
 20
38.384100000000004
 30
0.0
 10
1.7424000000000002
 20
38.384100000000004
 30
0.0
 10
1.1819
 20
38.384100000000004
 30
0.0
 10
0.7761
 20
38.276700000000005
 30
0.0
 10
0.5269
 20
38.060200000000002
 30
0.0
 10
0.5269
 20
38.060200000000002
 30
0.0
 10
0.2794
 20
37.845500000000001
 30
0.0
 10
0.1538
 20
37.563400000000001
 30
0.0
 10
0.1538
 20
37.2104
 30
0.0
 10
0.1538
 20
37.2104
 30
0.0
 10
0.1538
 20
36.9557
 30
0.0
 10
0.2193
 20
36.715499999999999
 30
0.0
 10
0.3522
 20
36.493500000000004
 30
0.0
 10
0.3522
 20
36.493500000000004
 30
0.0
 10
0.4832
 20
36.271500000000003
 30
0.0
 10
0.7088
 20
36.058599999999998
 30
0.0
 10
1.0291000000000001
 20
35.8566
 30
0.0
 10
1.0291000000000001
 20
35.8566
 30
0.0
 10
1.4803000000000002
 20
35.569099999999999
 30
0.0
 10
2.1554000000000002
 20
35.318000000000005
 30
0.0
 10
3.0543
 20
35.1051
 30
0.0
 10
3.0543
 20
35.1051
 30
0.0
 10
3.8222
 20
34.923200000000001
 30
0.0
 10
4.4408000000000003
 20
34.834000000000003
 30
0.0
 10
4.9103000000000003
 20
34.834000000000003
 30
0.0
  0
SPLINE
  5
33
100
AcDbEntity
  8
Ebene 1
100
AcDbSpline
210
0.0
220
0.0
230
1.0
 70
     1
 71
     3
 72
    44
 73
    40
 74
     0
 42
0.0000000001
 43
0.0000000001
 40
0.0
 40
0.0
 40
0.0
 40
0.0
 40
0.1
 40
0.1
 40
0.1
 40
0.1
 40
0.2
 40
0.2
 40
0.2
 40
0.2
 40
0.3
 40
0.3
 40
0.3
 40
0.3
 40
0.4
 40
0.4
 40
0.4
 40
0.4
 40
0.5
 40
0.5
 40
0.5
 40
0.5
 40
0.6
 40
0.6
 40
0.6
 40
0.6
 40
0.7
 40
0.7
 40
0.7
 40
0.7
 40
0.7999999999999999
 40
0.7999999999999999
 40
0.7999999999999999
 40
0.7999999999999999
 40
0.8999999999999999
 40
0.8999999999999999
 40
0.8999999999999999
 40
0.8999999999999999
 40
1.0
 40
1.0
 40
1.0
 40
1.0
 10
9.5266999999999999
 20
40.9589
 30
0.0
 10
8.3039000000000005
 20
40.400200000000005
 30
0.0
 10
7.0465
 20
40.1218
 30
0.0
 10
5.7564000000000002
 20
40.1218
 30
0.0
 10
5.7564000000000002
 20
40.1218
 30
0.0
 10
4.8976000000000006
 20
40.1218
 30
0.0
 10
4.0968999999999998
 20
40.234700000000004
 30
0.0
 10
3.3564000000000003
 20
40.460300000000004
 30
0.0
 10
3.3564000000000003
 20
40.460300000000004
 30
0.0
 10
2.6140000000000003
 20
40.685900000000004
 30
0.0
 10
1.8825000000000001
 20
41.029800000000002
 30
0.0
 10
1.1564000000000001
 20
41.492000000000004
 30
0.0
 10
1.1564000000000001
 20
41.492000000000004
 30
0.0
 10
0.6724
 20
41.797699999999999
 30
0.0
 10
0.0483
 20
42.285400000000003
 30
0.0
 10
-0.7196
 20
42.956800000000001
 30
0.0
 10
-0.7196
 20
42.956800000000001
 30
0.0
 10
-0.7196
 20
42.956800000000001
 30
0.0
 10
-0.7196
 20
43.710100000000004
 30
0.0
 10
-0.7196
 20
43.710100000000004
 30
0.0
 10
-0.7196
 20
43.710100000000004
 30
0.0
 10
-0.2756
 20
43.293400000000005
 30
0.0
 10
0.3503
 20
42.853100000000005
 30
0.0
 10
1.1564000000000001
 20
42.389099999999999
 30
0.0
 10
1.1564000000000001
 20
42.389099999999999
 30
0.0
 10
1.9625000000000001
 20
41.926900000000003
 30
0.0
 10
2.7559
 20
41.588500000000003
 30
0.0
 10
3.5347
 20
41.379200000000004
 30
0.0
 10
3.5347
 20
41.379200000000004
 30
0.0
 10
4.3117000000000001
 20
41.169900000000005
 30
0.0
 10
5.0941000000000001
 20
41.064399999999999
 30
0.0
 10
5.8802000000000003
 20
41.064399999999999
 30
0.0
 10
5.8802000000000003
 20
41.064399999999999
 30
0.0
 10
7.0520000000000005
 20
41.064399999999999
 30
0.0
 10
8.2675000000000001
 20
41.270000000000003
 30
0.0
 10
9.5266999999999999
 20
41.677600000000005
 30
0.0
 10
9.5266999999999999
 20
41.677600000000005
 30
0.0
 10
9.5266999999999999
 20
41.677600000000005
 30
0.0
 10
9.5266999999999999
 20
40.9589
 30
0.0
 10
9.5266999999999999
 20
40.9589
 30
0.0
  0
SPLINE
  5
34
100
AcDbEntity
  8
Ebene 1
100
AcDbSpline
210
0.0
220
0.0
230
1.0
 70
     1
 71
     3
 72
   152
 73
   148
 74
     0
 42
0.0000000001
 43
0.0000000001
 40
0.0
 40
0.0
 40
0.0
 40
0.0
 40
0.027027027027027
 40
0.027027027027027
 40
0.027027027027027
 40
0.027027027027027
 40
0.0540540540540541
 40
0.0540540540540541
 40
0.0540540540540541
 40
0.0540540540540541
 40
0.0810810810810811
 40
0.0810810810810811
 40
0.0810810810810811
 40
0.0810810810810811
 40
0.1081081081081081
 40
0.1081081081081081
 40
0.1081081081081081
 40
0.1081081081081081
 40
0.1351351351351351
 40
0.1351351351351351
 40
0.1351351351351351
 40
0.1351351351351351
 40
0.1621621621621622
 40
0.1621621621621622
 40
0.1621621621621622
 40
0.1621621621621622
 40
0.1891891891891892
 40
0.1891891891891892
 40
0.1891891891891892
 40
0.1891891891891892
 40
0.2162162162162162
 40
0.2162162162162162
 40
0.2162162162162162
 40
0.2162162162162162
 40
0.2432432432432433
 40
0.2432432432432433
 40
0.2432432432432433
 40
0.2432432432432433
 40
0.2702702702702703
 40
0.2702702702702703
 40
0.2702702702702703
 40
0.2702702702702703
 40
0.2972972972972973
 40
0.2972972972972973
 40
0.2972972972972973
 40
0.2972972972972973
 40
0.3243243243243243
 40
0.3243243243243243
 40
0.3243243243243243
 40
0.3243243243243243
 40
0.3513513513513514
 40
0.3513513513513514
 40
0.3513513513513514
 40
0.3513513513513514
 40
0.3783783783783784
 40
0.3783783783783784
 40
0.3783783783783784
 40
0.3783783783783784
 40
0.4054054054054054
 40
0.4054054054054054
 40
0.4054054054054054
 40
0.4054054054054054
 40
0.4324324324324325
 40
0.4324324324324325
 40
0.4324324324324325
 40
0.4324324324324325
 40
0.4594594594594595
 40
0.4594594594594595
 40
0.4594594594594595
 40
0.4594594594594595
 40
0.4864864864864865
 40
0.4864864864864865
 40
0.4864864864864865
 40
0.4864864864864865
 40
0.5135135135135136
 40
0.5135135135135136
 40
0.5135135135135136
 40
0.5135135135135136
 40
0.5405405405405406
 40
0.5405405405405406
 40
0.5405405405405406
 40
0.5405405405405406
 40
0.5675675675675675
 40
0.5675675675675675
 40
0.5675675675675675
 40
0.5675675675675675
 40
0.5945945945945945
 40
0.5945945945945945
 40
0.5945945945945945
 40
0.5945945945945945
 40
0.6216216216216215
 40
0.6216216216216215
 40
0.6216216216216215
 40
0.6216216216216215
 40
0.6486486486486485
 40
0.6486486486486485
 40
0.6486486486486485
 40
0.6486486486486485
 40
0.6756756756756754
 40
0.6756756756756754
 40
0.6756756756756754
 40
0.6756756756756754
 40
0.7027027027027024
 40
0.7027027027027024
 40
0.7027027027027024
 40
0.7027027027027024
 40
0.7297297297297294
 40
0.7297297297297294
 40
0.7297297297297294
 40
0.7297297297297294
 40
0.7567567567567564
 40
0.7567567567567564
 40
0.7567567567567564
 40
0.7567567567567564
 40
0.7837837837837833
 40
0.7837837837837833
 40
0.7837837837837833
 40
0.7837837837837833
 40
0.8108108108108103
 40
0.8108108108108103
 40
0.8108108108108103
 40
0.8108108108108103
 40
0.8378378378378373
 40
0.8378378378378373
 40
0.8378378378378373
 40
0.8378378378378373
 40
0.8648648648648643
 40
0.8648648648648643
 40
0.8648648648648643
 40
0.8648648648648643
 40
0.8918918918918912
 40
0.8918918918918912
 40
0.8918918918918912
 40
0.8918918918918912
 40
0.9189189189189182
 40
0.9189189189189182
 40
0.9189189189189182
 40
0.9189189189189182
 40
0.9459459459459452
 40
0.9459459459459452
 40
0.9459459459459452
 40
0.9459459459459452
 40
0.9729729729729721
 40
0.9729729729729721
 40
0.9729729729729721
 40
0.9729729729729721
 40
1.0
 40
1.0
 40
1.0
 40
1.0
 10
4.7011000000000003
 20
43.602800000000002
 30
0.0
 10
4.7011000000000003
 20
43.602800000000002
 30
0.0
 10
4.6063999999999998
 20
44.625399999999999
 30
0.0
 10
4.6063999999999998
 20
44.625399999999999
 30
0.0
 10
4.6063999999999998
 20
44.625399999999999
 30
0.0
 10
4.6063999999999998
 20
44.625399999999999
 30
0.0
 10
4.8776000000000002
 20
44.616300000000003
 30
0.0
 10
4.8776000000000002
 20
44.616300000000003
 30
0.0
 10
4.8776000000000002
 20
44.616300000000003
 30
0.0
 10
5.1796000000000006
 20
44.616300000000003
 30
0.0
 10
5.4561999999999999
 20
44.685500000000005
 30
0.0
 10
5.7073
 20
44.823700000000002
 30
0.0
 10
5.7073
 20
44.823700000000002
 30
0.0
 10
5.9565999999999999
 20
44.962000000000003
 30
0.0
 10
6.1513
 20
45.191300000000005
 30
0.0
 10
6.2878000000000007
 20
45.511600000000001
 30
0.0
 10
6.2878000000000007
 20
45.511600000000001
 30
0.0
 10
6.4241999999999999
 20
45.830000000000005
 30
0.0
 10
6.4934000000000003
 20
46.210300000000004
 30
0.0
 10
6.4934000000000003
 20
46.652500000000003
 30
0.0
 10
6.4934000000000003
 20
46.652500000000003
 30
0.0
 10
6.4934000000000003
 20
47.276600000000002
 30
0.0
 10
6.3569000000000004
 20
47.755099999999999
 30
0.0
 10
6.0821000000000005
 20
48.082700000000003
 30
0.0
 10
6.0821000000000005
 20
48.082700000000003
 30
0.0
 10
5.8092000000000006
 20
48.411999999999999
 30
0.0
 10
5.4962
 20
48.575800000000001
 30
0.0
 10
5.1432000000000002
 20
48.575800000000001
 30
0.0
 10
5.1432000000000002
 20
48.575800000000001
 30
0.0
 10
4.8994
 20
48.575800000000001
 30
0.0
 10
4.6756000000000002
 20
48.488400000000006
 30
0.0
 10
4.4718
 20
48.315600000000003
 30
0.0
 10
4.4718
 20
48.315600000000003
 30
0.0
 10
4.2734000000000005
 20
48.137300000000003
 30
0.0
 10
4.0041000000000002
 20
47.651400000000002
 30
0.0
 10
3.6621000000000001
 20
46.859900000000003
 30
0.0
 10
3.6621000000000001
 20
46.859900000000003
 30
0.0
 10
3.3964000000000003
 20
46.244900000000001
 30
0.0
 10
3.1908000000000003
 20
45.826300000000003
 30
0.0
 10
3.0488
 20
45.602499999999999
 30
0.0
 10
3.0488
 20
45.602499999999999
 30
0.0
 10
2.8177000000000003
 20
45.249500000000005
 30
0.0
 10
2.5666000000000002
 20
44.991100000000003
 30
0.0
 10
2.2955000000000001
 20
44.823700000000002
 30
0.0
 10
2.2955000000000001
 20
44.823700000000002
 30
0.0
 10
2.0226000000000002
 20
44.656300000000002
 30
0.0
 10
1.7132000000000001
 20
44.572600000000001
 30
0.0
 10
1.3639000000000001
 20
44.572600000000001
 30
0.0
 10
1.3639000000000001
 20
44.572600000000001
 30
0.0
 10
0.9636
 20
44.572600000000001
 30
0.0
 10
0.5996
 20
44.683600000000006
 30
0.0
 10
0.2776
 20
44.903800000000004
 30
0.0
 10
0.2776
 20
44.903800000000004
 30
0.0
 10
-0.0463
 20
45.124000000000002
 30
0.0
 10
-0.2938
 20
45.446000000000005
 30
0.0
 10
-0.4648000000000001
 20
45.870000000000005
 30
0.0
 10
-0.4648000000000001
 20
45.870000000000005
 30
0.0
 10
-0.6341
 20
46.2958
 30
0.0
 10
-0.7196
 20
46.7744
 30
0.0
 10
-0.7196
 20
47.307500000000005
 30
0.0
 10
-0.7196
 20
47.307500000000005
 30
0.0
 10
-0.7196
 20
47.944400000000002
 30
0.0
 10
-0.614
 20
48.481200000000001
 30
0.0
 10
-0.3993
 20
48.917900000000003
 30
0.0
 10
-0.3993
 20
48.917900000000003
 30
0.0
 10
-0.1864
 20
49.354600000000005
 30
0.0
 10
0.0974
 20
49.671199999999999
 30
0.0
 10
0.4522000000000001
 20
49.869500000000002
 30
0.0
 10
0.4522000000000001
 20
49.869500000000002
 30
0.0
 10
0.8089000000000001
 20
50.066100000000006
 30
0.0
 10
1.1473
 20
50.164300000000004
 30
0.0
 10
1.4712000000000001
 20
50.164300000000004
 30
0.0
 10
1.4712000000000001
 20
50.164300000000004
 30
0.0
 10
1.504
 20
50.164300000000004
 30
0.0
 10
1.5568000000000002
 20
50.162500000000001
 30
0.0
 10
1.6314000000000002
 20
50.158900000000003
 30
0.0
 10
1.6314000000000002
 20
50.158900000000003
 30
0.0
 10
1.6314000000000002
 20
50.158900000000003
 30
0.0
 10
1.7114
 20
49.1526
 30
0.0
 10
1.7114
 20
49.1526
 30
0.0
 10
1.7114
 20
49.1526
 30
0.0
 10
1.4912000000000001
 20
49.1526
 30
0.0
 10
1.3184
 20
49.132600000000004
 30
0.0
 10
1.1947000000000001
 20
49.092600000000004
 30
0.0
 10
1.1947000000000001
 20
49.092600000000004
 30
0.0
 10
0.9763000000000001
 20
49.021599999999999
 30
0.0
 10
0.7943
 20
48.912400000000005
 30
0.0
 10
0.6451
 20
48.763200000000005
 30
0.0
 10
0.6451
 20
48.763200000000005
 30
0.0
 10
0.4959
 20
48.614000000000004
 30
0.0
 10
0.3758
 20
48.4084
 30
0.0
 10
0.2848
 20
48.1464
 30
0.0
 10
0.2848
 20
48.1464
 30
0.0
 10
0.1939
 20
47.886200000000002
 30
0.0
 10
0.1484
 20
47.593200000000003
 30
0.0
 10
0.1484
 20
47.271100000000004
 30
0.0
 10
0.1484
 20
47.271100000000004
 30
0.0
 10
0.1484
 20
46.701599999999999
 30
0.0
 10
0.2776
 20
46.259399999999999
 30
0.0
 10
0.5323
 20
45.942800000000005
 30
0.0
 10
0.5323
 20
45.942800000000005
 30
0.0
 10
0.7288
 20
45.700800000000001
 30
0.0
 10
0.9872000000000001
 20
45.5807
 30
0.0
 10
1.3111000000000002
 20
45.5807
 30
0.0
 10
1.3111000000000002
 20
45.5807
 30
0.0
 10
1.504
 20
45.5807
 30
0.0
 10
1.675
 20
45.629800000000003
 30
0.0
 10
1.8261000000000001
 20
45.729900000000001
 30
0.0
 10
1.8261000000000001
 20
45.729900000000001
 30
0.0
 10
1.9771000000000001
 20
45.830000000000005
 30
0.0
 10
2.1245000000000003
 20
46.008300000000006
 30
0.0
 10
2.27
 20
46.268500000000003
 30
0.0
 10
2.27
 20
46.268500000000003
 30
0.0
 10
2.3738000000000001
 20
46.452300000000001
 30
0.0
 10
2.5776000000000003
 20
46.890799999999999
 30
0.0
 10
2.8833000000000002
 20
47.584099999999999
 30
0.0
 10
2.8833000000000002
 20
47.584099999999999
 30
0.0
 10
3.1325000000000003
 20
48.1464
 30
0.0
 10
3.3272000000000004
 20
48.533900000000003
 30
0.0
 10
3.4710000000000001
 20
48.7468
 30
0.0
 10
3.4710000000000001
 20
48.7468
 30
0.0
 10
3.6584000000000003
 20
49.030700000000003
 30
0.0
 10
3.8877000000000002
 20
49.249000000000002
 30
0.0
 10
4.1551999999999998
 20
49.401900000000005
 30
0.0
 10
4.1551999999999998
 20
49.401900000000005
 30
0.0
 10
4.4226999999999999
 20
49.554700000000004
 30
0.0
 10
4.7282999999999999
 20
49.6312
 30
0.0
 10
5.0686
 20
49.6312
 30
0.0
 10
5.0686
 20
49.6312
 30
0.0
 10
5.4926000000000004
 20
49.6312
 30
0.0
 10
5.8820000000000006
 20
49.503800000000005
 30
0.0
 10
6.2404000000000002
 20
49.245400000000004
 30
0.0
 10
6.2404000000000002
 20
49.245400000000004
 30
0.0
 10
6.5971000000000002
 20
48.987000000000002
 30
0.0
 10
6.8737000000000004
 20
48.632200000000005
 30
0.0
 10
7.0684000000000005
 20
48.177300000000002
 30
0.0
 10
7.0684000000000005
 20
48.177300000000002
 30
0.0
 10
7.2648999999999999
 20
47.7224
 30
0.0
 10
7.3613
 20
47.200200000000002
 30
0.0
 10
7.3613
 20
46.614200000000004
 30
0.0
 10
7.3613
 20
46.614200000000004
 30
0.0
 10
7.3613
 20
45.729900000000001
 30
0.0
 10
7.1685000000000008
 20
45.0075
 30
0.0
 10
6.7827000000000002
 20
44.447099999999999
 30
0.0
 10
6.7827000000000002
 20
44.447099999999999
 30
0.0
 10
6.3969000000000005
 20
43.888500000000001
 30
0.0
 10
5.7037000000000004
 20
43.606400000000001
 30
0.0
 10
4.7011000000000003
 20
43.602800000000002
 30
0.0
  0
SPLINE
  5
35
100
AcDbEntity
  8
Ebene 1
100
AcDbSpline
210
0.0
220
0.0
230
1.0
 70
     1
 71
     3
 72
    80
 73
    76
 74
     0
 42
0.0000000001
 43
0.0000000001
 40
0.0
 40
0.0
 40
0.0
 40
0.0
 40
0.0526315789473684
 40
0.0526315789473684
 40
0.0526315789473684
 40
0.0526315789473684
 40
0.1052631578947368
 40
0.1052631578947368
 40
0.1052631578947368
 40
0.1052631578947368
 40
0.1578947368421053
 40
0.1578947368421053
 40
0.1578947368421053
 40
0.1578947368421053
 40
0.2105263157894737
 40
0.2105263157894737
 40
0.2105263157894737
 40
0.2105263157894737
 40
0.2631578947368421
 40
0.2631578947368421
 40
0.2631578947368421
 40
0.2631578947368421
 40
0.3157894736842105
 40
0.3157894736842105
 40
0.3157894736842105
 40
0.3157894736842105
 40
0.3684210526315789
 40
0.3684210526315789
 40
0.3684210526315789
 40
0.3684210526315789
 40
0.4210526315789474
 40
0.4210526315789474
 40
0.4210526315789474
 40
0.4210526315789474
 40
0.4736842105263158
 40
0.4736842105263158
 40
0.4736842105263158
 40
0.4736842105263158
 40
0.5263157894736842
 40
0.5263157894736842
 40
0.5263157894736842
 40
0.5263157894736842
 40
0.5789473684210527
 40
0.5789473684210527
 40
0.5789473684210527
 40
0.5789473684210527
 40
0.631578947368421
 40
0.631578947368421
 40
0.631578947368421
 40
0.631578947368421
 40
0.6842105263157894
 40
0.6842105263157894
 40
0.6842105263157894
 40
0.6842105263157894
 40
0.7368421052631577
 40
0.7368421052631577
 40
0.7368421052631577
 40
0.7368421052631577
 40
0.7894736842105261
 40
0.7894736842105261
 40
0.7894736842105261
 40
0.7894736842105261
 40
0.8421052631578945
 40
0.8421052631578945
 40
0.8421052631578945
 40
0.8421052631578945
 40
0.8947368421052628
 40
0.8947368421052628
 40
0.8947368421052628
 40
0.8947368421052628
 40
0.9473684210526312
 40
0.9473684210526312
 40
0.9473684210526312
 40
0.9473684210526312
 40
1.0
 40
1.0
 40
1.0
 40
1.0
 10
7.2285000000000004
 20
50.5974
 30
0.0
 10
7.2285000000000004
 20
50.5974
 30
0.0
 10
-0.5868
 20
52.227800000000002
 30
0.0
 10
-0.5868
 20
52.227800000000002
 30
0.0
 10
-0.5868
 20
52.227800000000002
 30
0.0
 10
-0.5868
 20
52.227800000000002
 30
0.0
 10
-0.5868
 20
53.5124
 30
0.0
 10
-0.5868
 20
53.5124
 30
0.0
 10
-0.5868
 20
53.5124
 30
0.0
 10
-0.5868
 20
53.5124
 30
0.0
 10
4.4771999999999998
 20
54.302100000000003
 30
0.0
 10
4.4771999999999998
 20
54.302100000000003
 30
0.0
 10
4.4771999999999998
 20
54.302100000000003
 30
0.0
 10
5.1432000000000002
 20
54.404000000000003
 30
0.0
 10
5.7801
 20
54.473200000000006
 30
0.0
 10
6.3915000000000006
 20
54.504100000000001
 30
0.0
 10
6.3915000000000006
 20
54.504100000000001
 30
0.0
 10
5.8656000000000006
 20
54.720600000000005
 30
0.0
 10
5.1523000000000003
 20
55.082700000000003
 30
0.0
 10
4.2534000000000001
 20
55.592200000000005
 30
0.0
 10
4.2534000000000001
 20
55.592200000000005
 30
0.0
 10
4.2534000000000001
 20
55.592200000000005
 30
0.0
 10
-0.5868
 20
58.332599999999999
 30
0.0
 10
-0.5868
 20
58.332599999999999
 30
0.0
 10
-0.5868
 20
58.332599999999999
 30
0.0
 10
-0.5868
 20
58.332599999999999
 30
0.0
 10
-0.5868
 20
59.6372
 30
0.0
 10
-0.5868
 20
59.6372
 30
0.0
 10
-0.5868
 20
59.6372
 30
0.0
 10
-0.5868
 20
59.6372
 30
0.0
 10
7.2285000000000004
 20
58.006900000000002
 30
0.0
 10
7.2285000000000004
 20
58.006900000000002
 30
0.0
 10
7.2285000000000004
 20
58.006900000000002
 30
0.0
 10
7.2285000000000004
 20
58.006900000000002
 30
0.0
 10
7.2285000000000004
 20
56.9788
 30
0.0
 10
7.2285000000000004
 20
56.9788
 30
0.0
 10
7.2285000000000004
 20
56.9788
 30
0.0
 10
7.2285000000000004
 20
56.9788
 30
0.0
 10
3.4273000000000002
 20
57.794000000000004
 30
0.0
 10
3.4273000000000002
 20
57.794000000000004
 30
0.0
 10
3.4273000000000002
 20
57.794000000000004
 30
0.0
 10
2.5503
 20
57.981400000000001
 30
0.0
 10
1.5659000000000001
 20
58.252500000000005
 30
0.0
 10
0.4741
 20
58.603700000000003
 30
0.0
 10
0.4741
 20
58.603700000000003
 30
0.0
 10
0.9818
 20
58.379900000000006
 30
0.0
 10
1.5295000000000001
 20
58.103300000000004
 30
0.0
 10
2.1154000000000002
 20
57.772100000000002
 30
0.0
 10
2.1154000000000002
 20
57.772100000000002
 30
0.0
 10
2.1154000000000002
 20
57.772100000000002
 30
0.0
 10
7.2285000000000004
 20
54.860700000000001
 30
0.0
 10
7.2285000000000004
 20
54.860700000000001
 30
0.0
 10
7.2285000000000004
 20
54.860700000000001
 30
0.0
 10
7.2285000000000004
 20
54.860700000000001
 30
0.0
 10
7.2285000000000004
 20
53.854500000000002
 30
0.0
 10
7.2285000000000004
 20
53.854500000000002
 30
0.0
 10
7.2285000000000004
 20
53.854500000000002
 30
0.0
 10
7.2285000000000004
 20
53.854500000000002
 30
0.0
 10
2.2173000000000003
 20
53.0702
 30
0.0
 10
2.2173000000000003
 20
53.0702
 30
0.0
 10
2.2173000000000003
 20
53.0702
 30
0.0
 10
1.7587000000000002
 20
52.999300000000005
 30
0.0
 10
1.2238
 20
52.948300000000003
 30
0.0
 10
0.6124000000000001
 20
52.915600000000005
 30
0.0
 10
0.6124000000000001
 20
52.915600000000005
 30
0.0
 10
1.2984
 20
52.8264
 30
0.0
 10
1.8424
 20
52.739100000000001
 30
0.0
 10
2.2446000000000002
 20
52.6554
 30
0.0
 10
2.2446000000000002
 20
52.6554
 30
0.0
 10
2.2446000000000002
 20
52.6554
 30
0.0
 10
7.2285000000000004
 20
51.6145
 30
0.0
 10
7.2285000000000004
 20
51.6145
 30
0.0
 10
7.2285000000000004
 20
51.6145
 30
0.0
 10
7.2285000000000004
 20
51.6145
 30
0.0
 10
7.2285000000000004
 20
50.5974
 30
0.0
 10
7.2285000000000004
 20
50.5974
 30
0.0
  0
SPLINE
  5
36
100
AcDbEntity
  8
Ebene 1
100
AcDbSpline
210
0.0
220
0.0
230
1.0
 70
     1
 71
     3
 72
    28
 73
    24
 74
     0
 42
0.0000000001
 43
0.0000000001
 40
0.0
 40
0.0
 40
0.0
 40
0.0
 40
0.1666666666666667
 40
0.1666666666666667
 40
0.1666666666666667
 40
0.1666666666666667
 40
0.3333333333333333
 40
0.3333333333333333
 40
0.3333333333333333
 40
0.3333333333333333
 40
0.5
 40
0.5
 40
0.5
 40
0.5
 40
0.6666666666666666
 40
0.6666666666666666
 40
0.6666666666666666
 40
0.6666666666666666
 40
0.8333333333333333
 40
0.8333333333333333
 40
0.8333333333333333
 40
0.8333333333333333
 40
1.0
 40
1.0
 40
1.0
 40
1.0
 10
7.2285000000000004
 20
59.648099999999999
 30
0.0
 10
7.2285000000000004
 20
59.648099999999999
 30
0.0
 10
-0.5868
 20
61.280300000000004
 30
0.0
 10
-0.5868
 20
61.280300000000004
 30
0.0
 10
-0.5868
 20
61.280300000000004
 30
0.0
 10
-0.5868
 20
61.280300000000004
 30
0.0
 10
-0.5868
 20
62.324800000000003
 30
0.0
 10
-0.5868
 20
62.324800000000003
 30
0.0
 10
-0.5868
 20
62.324800000000003
 30
0.0
 10
-0.5868
 20
62.324800000000003
 30
0.0
 10
6.3442000000000007
 20
60.880000000000003
 30
0.0
 10
6.3442000000000007
 20
60.880000000000003
 30
0.0
 10
6.3442000000000007
 20
60.880000000000003
 30
0.0
 10
6.3442000000000007
 20
60.880000000000003
 30
0.0
 10
6.3442000000000007
 20
64.935900000000004
 30
0.0
 10
6.3442000000000007
 20
64.935900000000004
 30
0.0
 10
6.3442000000000007
 20
64.935900000000004
 30
0.0
 10
6.3442000000000007
 20
64.935900000000004
 30
0.0
 10
7.2285000000000004
 20
64.75030000000001
 30
0.0
 10
7.2285000000000004
 20
64.75030000000001
 30
0.0
 10
7.2285000000000004
 20
64.75030000000001
 30
0.0
 10
7.2285000000000004
 20
64.75030000000001
 30
0.0
 10
7.2285000000000004
 20
59.648099999999999
 30
0.0
 10
7.2285000000000004
 20
59.648099999999999
 30
0.0
  0
SPLINE
  5
37
100
AcDbEntity
  8
Ebene 1
100
AcDbSpline
210
0.0
220
0.0
230
1.0
 70
     1
 71
     3
 72
    44
 73
    40
 74
     0
 42
0.0000000001
 43
0.0000000001
 40
0.0
 40
0.0
 40
0.0
 40
0.0
 40
0.1
 40
0.1
 40
0.1
 40
0.1
 40
0.2
 40
0.2
 40
0.2
 40
0.2
 40
0.3
 40
0.3
 40
0.3
 40
0.3
 40
0.4
 40
0.4
 40
0.4
 40
0.4
 40
0.5
 40
0.5
 40
0.5
 40
0.5
 40
0.6
 40
0.6
 40
0.6
 40
0.6
 40
0.7
 40
0.7
 40
0.7
 40
0.7
 40
0.7999999999999999
 40
0.7999999999999999
 40
0.7999999999999999
 40
0.7999999999999999
 40
0.8999999999999999
 40
0.8999999999999999
 40
0.8999999999999999
 40
0.8999999999999999
 40
1.0
 40
1.0
 40
1.0
 40
1.0
 10
-0.7196
 20
67.447000000000003
 30
0.0
 10
0.5032
 20
68.00930000000001
 30
0.0
 10
1.7569000000000001
 20
68.289500000000004
 30
0.0
 10
3.0434000000000001
 20
68.289500000000004
 30
0.0
 10
3.0434000000000001
 20
68.289500000000004
 30
0.0
 10
3.9077000000000002
 20
68.289500000000004
 30
0.0
 10
4.7083000000000004
 20
68.176699999999997
 30
0.0
 10
5.4470999999999998
 20
67.951099999999997
 30
0.0
 10
5.4470999999999998
 20
67.951099999999997
 30
0.0
 10
6.1877000000000004
 20
67.725400000000008
 30
0.0
 10
6.9210000000000003
 20
67.381500000000003
 30
0.0
 10
7.6488000000000005
 20
66.919300000000007
 30
0.0
 10
7.6488000000000005
 20
66.919300000000007
 30
0.0
 10
8.1327999999999996
 20
66.609999999999999
 30
0.0
 10
8.7588000000000008
 20
66.12230000000001
 30
0.0
 10
9.5266999999999999
 20
65.45450000000001
 30
0.0
 10
9.5266999999999999
 20
65.45450000000001
 30
0.0
 10
9.5266999999999999
 20
65.45450000000001
 30
0.0
 10
9.5266999999999999
 20
64.703000000000003
 30
0.0
 10
9.5266999999999999
 20
64.703000000000003
 30
0.0
 10
9.5266999999999999
 20
64.703000000000003
 30
0.0
 10
9.0791000000000004
 20
65.1143
 30
0.0
 10
8.4512999999999998
 20
65.552800000000005
 30
0.0
 10
7.6452
 20
66.018600000000006
 30
0.0
 10
7.6452
 20
66.018600000000006
 30
0.0
 10
6.8372999999999999
 20
66.484400000000008
 30
0.0
 10
6.0457000000000001
 20
66.821100000000001
 30
0.0
 10
5.2688000000000006
 20
67.028500000000008
 30
0.0
 10
5.2688000000000006
 20
67.028500000000008
 30
0.0
 10
4.4935999999999998
 20
67.237800000000007
 30
0.0
 10
3.7094
 20
67.341499999999996
 30
0.0
 10
2.9215
 20
67.341499999999996
 30
0.0
 10
2.9215
 20
67.341499999999996
 30
0.0
 10
1.7478
 20
67.341499999999996
 30
0.0
 10
0.5341
 20
67.137700000000009
 30
0.0
 10
-0.7196
 20
66.728300000000004
 30
0.0
 10
-0.7196
 20
66.728300000000004
 30
0.0
 10
-0.7196
 20
66.728300000000004
 30
0.0
 10
-0.7196
 20
67.447000000000003
 30
0.0
 10
-0.7196
 20
67.447000000000003
 30
0.0
  0
SPLINE
  5
39
100
AcDbEntity
  8
LC-001-002-----0
370
    35
100
AcDbSpline
210
0.0
220
0.0
230
1.0
 70
     0
 71
     3
 72
     8
 73
     4
 74
     0
 42
0.0000000001
 43
0.0000000001
 40
0.0
 40
0.0
 40
0.0
 40
0.0
 40
1.0
 40
1.0
 40
1.0
 40
1.0
 10
-5.3559000000000001
 20
-2.4372000000000003
 30
0.0
 10
-5.3559000000000001
 20
-2.4372000000000003
 30
0.0
 10
-18.123000000000001
 20
-2.4373
 30
0.0
 10
-18.123000000000001
 20
-2.4373
 30
0.0
  0
SPLINE
  5
3A
100
AcDbEntity
  8
LC-001-002-----0
370
    35
100
AcDbSpline
210
0.0
220
0.0
230
1.0
 70
     0
 71
     3
 72
     8
 73
     4
 74
     0
 42
0.0000000001
 43
0.0000000001
 40
0.0
 40
0.0
 40
0.0
 40
0.0
 40
1.0
 40
1.0
 40
1.0
 40
1.0
 10
-10.827500000000001
 20
-40.2699
 30
0.0
 10
-10.827500000000001
 20
-40.2699
 30
0.0
 10
-10.8277
 20
-4.0452000000000004
 30
0.0
 10
-10.8277
 20
-4.0452000000000004
 30
0.0
  0
SPLINE
  5
3B
100
AcDbEntity
  8
LC-001-002-----0
370
    35
100
AcDbSpline
210
0.0
220
0.0
230
1.0
 70
     0
 71
     3
 72
     8
 73
     4
 74
     0
 42
0.0000000001
 43
0.0000000001
 40
0.0
 40
0.0
 40
0.0
 40
0.0
 40
1.0
 40
1.0
 40
1.0
 40
1.0
 10
-15.6911
 20
-49.484400000000001
 30
0.0
 10
-15.6911
 20
-49.484400000000001
 30
0.0
 10
-15.6912
 20
-4.0452000000000004
 30
0.0
 10
-15.6912
 20
-4.0452000000000004
 30
0.0
  0
SPLINE
  5
3C
100
AcDbEntity
  8
LC-001-002-----0
370
    35
100
AcDbSpline
210
0.0
220
0.0
230
1.0
 70
     0
 71
     3
 72
     8
 73
     4
 74
     0
 42
0.0000000001
 43
0.0000000001
 40
0.0
 40
0.0
 40
0.0
 40
0.0
 40
1.0
 40
1.0
 40
1.0
 40
1.0
 10
-5.3561000000000005
 20
-52.308100000000003
 30
0.0
 10
-5.3561000000000005
 20
-52.308100000000003
 30
0.0
 10
-5.3561000000000005
 20
-51.092200000000005
 30
0.0
 10
-5.3561000000000005
 20
-51.092200000000005
 30
0.0
  0
SPLINE
  5
3D
100
AcDbEntity
  8
LC-001-002-----0
370
    35
100
AcDbSpline
210
0.0
220
0.0
230
1.0
 70
     0
 71
     3
 72
     8
 73
     4
 74
     0
 42
0.0000000001
 43
0.0000000001
 40
0.0
 40
0.0
 40
0.0
 40
0.0
 40
1.0
 40
1.0
 40
1.0
 40
1.0
 10
-5.3561000000000005
 20
-51.092200000000005
 30
0.0
 10
-5.3561000000000005
 20
-51.092200000000005
 30
0.0
 10
-18.122800000000002
 20
-51.092300000000002
 30
0.0
 10
-18.122800000000002
 20
-51.092300000000002
 30
0.0
  0
SPLINE
  5
3E
100
AcDbEntity
  8
LC-001-002-----0
370
    35
100
AcDbSpline
210
0.0
220
0.0
230
1.0
 70
     0
 71
     3
 72
     8
 73
     4
 74
     0
 42
0.0000000001
 43
0.0000000001
 40
0.0
 40
0.0
 40
0.0
 40
0.0
 40
1.0
 40
1.0
 40
1.0
 40
1.0
 10
-10.827500000000001
 20
-40.2699
 30
0.0
 10
-10.827500000000001
 20
-40.2699
 30
0.0
 10
-10.827500000000001
 20
-49.484400000000001
 30
0.0
 10
-10.827500000000001
 20
-49.484400000000001
 30
0.0
  0
SPLINE
  5
3F
100
AcDbEntity
  8
LC-001-002-----0
370
    35
100
AcDbSpline
210
0.0
220
0.0
230
1.0
 70
     0
 71
     3
 72
     8
 73
     4
 74
     0
 42
0.0000000001
 43
0.0000000001
 40
0.0
 40
0.0
 40
0.0
 40
0.0
 40
1.0
 40
1.0
 40
1.0
 40
1.0
 10
-13.259400000000001
 20
-46.735199999999999
 30
0.0
 10
-13.259400000000001
 20
-46.735199999999999
 30
0.0
 10
-11.559000000000001
 20
-49.680400000000006
 30
0.0
 10
-11.559000000000001
 20
-49.680400000000006
 30
0.0
  0
SPLINE
  5
40
100
AcDbEntity
  8
LC-001-002-----0
370
    35
100
AcDbSpline
210
0.0
220
0.0
230
1.0
 70
     0
 71
     3
 72
     8
 73
     4
 74
     0
 42
0.0000000001
 43
0.0000000001
 40
0.0
 40
0.0
 40
0.0
 40
0.0
 40
1.0
 40
1.0
 40
1.0
 40
1.0
 10
-9.1272000000000002
 20
-49.680400000000006
 30
0.0
 10
-9.1272000000000002
 20
-49.680400000000006
 30
0.0
 10
-10.827500000000001
 20
-46.735300000000002
 30
0.0
 10
-10.827500000000001
 20
-46.735300000000002
 30
0.0
  0
SPLINE
  5
41
100
AcDbEntity
  8
LC-001-002-----0
370
    35
100
AcDbSpline
210
0.0
220
0.0
230
1.0
 70
     0
 71
     3
 72
     8
 73
     4
 74
     0
 42
0.0000000001
 43
0.0000000001
 40
0.0
 40
0.0
 40
0.0
 40
0.0
 40
1.0
 40
1.0
 40
1.0
 40
1.0
 10
-4.9508000000000001
 20
-52.308100000000003
 30
0.0
 10
-4.2792000000000003
 20
-52.308100000000003
 30
0.0
 10
-3.7349000000000001
 20
-51.763800000000003
 30
0.0
 10
-3.7349000000000001
 20
-51.092200000000005
 30
0.0
  0
SPLINE
  5
42
100
AcDbEntity
  8
LC-001-002-----0
370
    35
100
AcDbSpline
210
0.0
220
0.0
230
1.0
 70
     0
 71
     3
 72
     8
 73
     4
 74
     0
 42
0.0000000001
 43
0.0000000001
 40
0.0
 40
0.0
 40
0.0
 40
0.0
 40
1.0
 40
1.0
 40
1.0
 40
1.0
 10
-3.7348000000000003
 20
-2.4371
 30
0.0
 10
-3.7348000000000003
 20
-1.7656000000000001
 30
0.0
 10
-4.2791000000000006
 20
-1.2212000000000001
 30
0.0
 10
-4.9507000000000003
 20
-1.2212000000000001
 30
0.0
  0
SPLINE
  5
43
100
AcDbEntity
  8
LC-001-002-----0
370
    35
100
AcDbSpline
210
0.0
220
0.0
230
1.0
 70
     0
 71
     3
 72
     8
 73
     4
 74
     0
 42
0.0000000001
 43
0.0000000001
 40
0.0
 40
0.0
 40
0.0
 40
0.0
 40
1.0
 40
1.0
 40
1.0
 40
1.0
 10
-5.3559000000000001
 20
-1.2212000000000001
 30
0.0
 10
-5.3559000000000001
 20
-1.2212000000000001
 30
0.0
 10
-5.3559000000000001
 20
-2.4371
 30
0.0
 10
-5.3559000000000001
 20
-2.4371
 30
0.0
  0
SPLINE
  5
44
100
AcDbEntity
  8
LC-001-002-----0
370
    35
100
AcDbSpline
210
0.0
220
0.0
230
1.0
 70
     0
 71
     3
 72
     8
 73
     4
 74
     0
 42
0.0000000001
 43
0.0000000001
 40
0.0
 40
0.0
 40
0.0
 40
0.0
 40
1.0
 40
1.0
 40
1.0
 40
1.0
 10
-5.3561000000000005
 20
-52.308100000000003
 30
0.0
 10
-5.3561000000000005
 20
-52.308100000000003
 30
0.0
 10
-4.9508000000000001
 20
-52.308100000000003
 30
0.0
 10
-4.9508000000000001
 20
-52.308100000000003
 30
0.0
  0
SPLINE
  5
45
100
AcDbEntity
  8
LC-001-002-----0
370
    35
100
AcDbSpline
210
0.0
220
0.0
230
1.0
 70
     0
 71
     3
 72
     8
 73
     4
 74
     0
 42
0.0000000001
 43
0.0000000001
 40
0.0
 40
0.0
 40
0.0
 40
0.0
 40
1.0
 40
1.0
 40
1.0
 40
1.0
 10
-4.9506000000000006
 20
-1.2212000000000001
 30
0.0
 10
-4.9506000000000006
 20
-1.2212000000000001
 30
0.0
 10
-5.3559000000000001
 20
-1.2212000000000001
 30
0.0
 10
-5.3559000000000001
 20
-1.2212000000000001
 30
0.0
  0
SPLINE
  5
46
100
AcDbEntity
  8
LC-001-002-----0
370
    35
100
AcDbSpline
210
0.0
220
0.0
230
1.0
 70
     0
 71
     3
 72
     8
 73
     4
 74
     0
 42
0.0000000001
 43
0.0000000001
 40
0.0
 40
0.0
 40
0.0
 40
0.0
 40
1.0
 40
1.0
 40
1.0
 40
1.0
 10
-18.135200000000001
 20
-16.213200000000001
 30
0.0
 10
-18.135200000000001
 20
-16.213200000000001
 30
0.0
 10
-18.135300000000001
 20
-4.0663999999999998
 30
0.0
 10
-18.135300000000001
 20
-4.0663999999999998
 30
0.0
  0
SPLINE
  5
47
100
AcDbEntity
  8
LC-001-002-----0
370
    35
100
AcDbSpline
210
0.0
220
0.0
230
1.0
 70
     0
 71
     3
 72
     8
 73
     4
 74
     0
 42
0.0000000001
 43
0.0000000001
 40
0.0
 40
0.0
 40
0.0
 40
0.0
 40
1.0
 40
1.0
 40
1.0
 40
1.0
 10
-20.5792
 20
-49.527000000000001
 30
0.0
 10
-20.5792
 20
-49.527000000000001
 30
0.0
 10
-20.5793
 20
-4.0876000000000001
 30
0.0
 10
-20.5793
 20
-4.0876000000000001
 30
0.0
  0
SPLINE
  5
48
100
AcDbEntity
  8
LC-001-002-----0
370
    35
100
AcDbSpline
210
0.0
220
0.0
230
1.0
 70
     0
 71
     3
 72
     8
 73
     4
 74
     0
 42
0.0000000001
 43
0.0000000001
 40
0.0
 40
0.0
 40
0.0
 40
0.0
 40
1.0
 40
1.0
 40
1.0
 40
1.0
 10
-21.310600000000001
 20
-49.722900000000003
 30
0.0
 10
-21.310600000000001
 20
-49.722900000000003
 30
0.0
 10
-23.025200000000002
 20
-46.753399999999999
 30
0.0
 10
-23.025200000000002
 20
-46.753399999999999
 30
0.0
  0
SPLINE
  5
49
100
AcDbEntity
  8
LC-001-002-----0
370
    35
100
AcDbSpline
210
0.0
220
0.0
230
1.0
 70
     0
 71
     3
 72
     8
 73
     4
 74
     0
 42
0.0000000001
 43
0.0000000001
 40
0.0
 40
0.0
 40
0.0
 40
0.0
 40
1.0
 40
1.0
 40
1.0
 40
1.0
 10
-23.023500000000002
 20
-3.6957
 30
0.0
 10
-23.023500000000002
 20
-3.6957
 30
0.0
 10
-23.773500000000002
 20
-3.6957
 30
0.0
 10
-23.773500000000002
 20
-3.6957
 30
0.0
  0
SPLINE
  5
4A
100
AcDbEntity
  8
LC-001-002-----0
370
    35
100
AcDbSpline
210
0.0
220
0.0
230
1.0
 70
     0
 71
     3
 72
     8
 73
     4
 74
     0
 42
0.0000000001
 43
0.0000000001
 40
0.0
 40
0.0
 40
0.0
 40
0.0
 40
1.0
 40
1.0
 40
1.0
 40
1.0
 10
-23.773500000000002
 20
-3.6957
 30
0.0
 10
-23.773500000000002
 20
-3.6957
 30
0.0
 10
-23.773500000000002
 20
-42.772800000000004
 30
0.0
 10
-23.773500000000002
 20
-42.772800000000004
 30
0.0
  0
SPLINE
  5
4B
100
AcDbEntity
  8
LC-001-002-----0
370
    35
100
AcDbSpline
210
0.0
220
0.0
230
1.0
 70
     0
 71
     3
 72
     8
 73
     4
 74
     0
 42
0.0000000001
 43
0.0000000001
 40
0.0
 40
0.0
 40
0.0
 40
0.0
 40
1.0
 40
1.0
 40
1.0
 40
1.0
 10
-24.977700000000002
 20
-4.2915999999999999
 30
0.0
 10
-24.977700000000002
 20
-4.2915999999999999
 30
0.0
 10
-23.773500000000002
 20
-4.2915999999999999
 30
0.0
 10
-23.773500000000002
 20
-4.2915999999999999
 30
0.0
  0
SPLINE
  5
4C
100
AcDbEntity
  8
LC-001-002-----0
370
    35
100
AcDbSpline
210
0.0
220
0.0
230
1.0
 70
     0
 71
     3
 72
     8
 73
     4
 74
     0
 42
0.0000000001
 43
0.0000000001
 40
0.0
 40
0.0
 40
0.0
 40
0.0
 40
1.0
 40
1.0
 40
1.0
 40
1.0
 10
-23.023200000000003
 20
-49.834099999999999
 30
0.0
 10
-23.023200000000003
 20
-49.834099999999999
 30
0.0
 10
-23.773300000000003
 20
-49.834099999999999
 30
0.0
 10
-23.773300000000003
 20
-49.834099999999999
 30
0.0
  0
SPLINE
  5
4D
100
AcDbEntity
  8
LC-001-002-----0
370
    35
100
AcDbSpline
210
0.0
220
0.0
230
1.0
 70
     0
 71
     3
 72
     8
 73
     4
 74
     0
 42
0.0000000001
 43
0.0000000001
 40
0.0
 40
0.0
 40
0.0
 40
0.0
 40
1.0
 40
1.0
 40
1.0
 40
1.0
 10
-23.773300000000003
 20
-49.834099999999999
 30
0.0
 10
-23.773300000000003
 20
-49.834099999999999
 30
0.0
 10
-23.773400000000002
 20
-42.772800000000004
 30
0.0
 10
-23.773400000000002
 20
-42.772800000000004
 30
0.0
  0
SPLINE
  5
4E
100
AcDbEntity
  8
LC-001-002-----0
370
    35
100
AcDbSpline
210
0.0
220
0.0
230
1.0
 70
     0
 71
     3
 72
     8
 73
     4
 74
     0
 42
0.0000000001
 43
0.0000000001
 40
0.0
 40
0.0
 40
0.0
 40
0.0
 40
1.0
 40
1.0
 40
1.0
 40
1.0
 10
-5.5885000000000007
 20
-2.2442000000000002
 30
0.0
 10
-5.5885000000000007
 20
-2.2442000000000002
 30
0.0
 10
-18.123000000000001
 20
-2.2443
 30
0.0
 10
-18.123000000000001
 20
-2.2443
 30
0.0
  0
SPLINE
  5
4F
100
AcDbEntity
  8
LC-001-002-----0
370
    35
100
AcDbSpline
210
0.0
220
0.0
230
1.0
 70
     0
 71
     3
 72
     8
 73
     4
 74
     0
 42
0.0000000001
 43
0.0000000001
 40
0.0
 40
0.0
 40
0.0
 40
0.0
 40
1.0
 40
1.0
 40
1.0
 40
1.0
 10
-5.5884
 20
-51.285200000000003
 30
0.0
 10
-5.5884
 20
-51.285200000000003
 30
0.0
 10
-18.122800000000002
 20
-51.285299999999999
 30
0.0
 10
-18.122800000000002
 20
-51.285299999999999
 30
0.0
  0
SPLINE
  5
50
100
AcDbEntity
  8
LC-001-002-----0
370
    35
100
AcDbSpline
210
0.0
220
0.0
230
1.0
 70
     0
 71
     3
 72
     8
 73
     4
 74
     0
 42
0.0000000001
 43
0.0000000001
 40
0.0
 40
0.0
 40
0.0
 40
0.0
 40
1.0
 40
1.0
 40
1.0
 40
1.0
 10
-35.174199999999999
 20
-16.149900000000002
 30
0.0
 10
-35.174199999999999
 20
-16.149900000000002
 30
0.0
 10
-51.791800000000002
 20
-16.150100000000002
 30
0.0
 10
-51.791800000000002
 20
-16.150100000000002
 30
0.0
  0
SPLINE
  5
51
100
AcDbEntity
  8
LC-001-002-----0
370
    35
100
AcDbSpline
210
0.0
220
0.0
230
1.0
 70
     0
 71
     3
 72
     8
 73
     4
 74
     0
 42
0.0000000001
 43
0.0000000001
 40
0.0
 40
0.0
 40
0.0
 40
0.0
 40
1.0
 40
1.0
 40
1.0
 40
1.0
 10
-51.791700000000006
 20
-47.415800000000004
 30
0.0
 10
-51.791700000000006
 20
-47.415800000000004
 30
0.0
 10
-35.174199999999999
 20
-47.415700000000001
 30
0.0
 10
-35.174199999999999
 20
-47.415700000000001
 30
0.0
  0
SPLINE
  5
52
100
AcDbEntity
  8
LC-001-002-----0
370
    35
100
AcDbSpline
210
0.0
220
0.0
230
1.0
 70
     0
 71
     3
 72
     8
 73
     4
 74
     0
 42
0.0000000001
 43
0.0000000001
 40
0.0
 40
0.0
 40
0.0
 40
0.0
 40
1.0
 40
1.0
 40
1.0
 40
1.0
 10
-31.314200000000003
 20
-46.455600000000004
 30
0.0
 10
-31.314200000000003
 20
-46.455600000000004
 30
0.0
 10
-35.174199999999999
 20
-47.4206
 30
0.0
 10
-35.174199999999999
 20
-47.4206
 30
0.0
  0
SPLINE
  5
53
100
AcDbEntity
  8
LC-001-002-----0
370
    35
100
AcDbSpline
210
0.0
220
0.0
230
1.0
 70
     0
 71
     3
 72
     8
 73
     4
 74
     0
 42
0.0000000001
 43
0.0000000001
 40
0.0
 40
0.0
 40
0.0
 40
0.0
 40
1.0
 40
1.0
 40
1.0
 40
1.0
 10
-57.581800000000001
 20
-16.149900000000002
 30
0.0
 10
-57.581800000000001
 20
-16.149900000000002
 30
0.0
 10
-58.739700000000006
 20
-16.149900000000002
 30
0.0
 10
-58.739700000000006
 20
-16.149900000000002
 30
0.0
  0
SPLINE
  5
54
100
AcDbEntity
  8
LC-001-002-----0
370
    35
100
AcDbSpline
210
0.0
220
0.0
230
1.0
 70
     0
 71
     3
 72
     8
 73
     4
 74
     0
 42
0.0000000001
 43
0.0000000001
 40
0.0
 40
0.0
 40
0.0
 40
0.0
 40
1.0
 40
1.0
 40
1.0
 40
1.0
 10
-58.739600000000003
 20
-47.415700000000001
 30
0.0
 10
-58.739600000000003
 20
-47.415700000000001
 30
0.0
 10
-57.581600000000002
 20
-47.415700000000001
 30
0.0
 10
-57.581600000000002
 20
-47.415700000000001
 30
0.0
  0
SPLINE
  5
55
100
AcDbEntity
  8
LC-001-002-----0
370
    35
100
AcDbSpline
210
0.0
220
0.0
230
1.0
 70
     0
 71
     3
 72
     8
 73
     4
 74
     0
 42
0.0000000001
 43
0.0000000001
 40
0.0
 40
0.0
 40
0.0
 40
0.0
 40
1.0
 40
1.0
 40
1.0
 40
1.0
 10
-56.4238
 20
-14.316500000000001
 30
0.0
 10
-57.063200000000002
 20
-14.316500000000001
 30
0.0
 10
-57.581800000000001
 20
-14.834900000000001
 30
0.0
 10
-57.581800000000001
 20
-15.474500000000001
 30
0.0
  0
SPLINE
  5
56
100
AcDbEntity
  8
LC-001-002-----0
370
    35
100
AcDbSpline
210
0.0
220
0.0
230
1.0
 70
     0
 71
     3
 72
     8
 73
     4
 74
     0
 42
0.0000000001
 43
0.0000000001
 40
0.0
 40
0.0
 40
0.0
 40
0.0
 40
1.0
 40
1.0
 40
1.0
 40
1.0
 10
-57.581600000000002
 20
-48.091300000000004
 30
0.0
 10
-57.581600000000002
 20
-48.730800000000002
 30
0.0
 10
-57.063200000000002
 20
-49.249300000000005
 30
0.0
 10
-56.4236
 20
-49.249300000000005
 30
0.0
  0
SPLINE
  5
57
100
AcDbEntity
  8
LC-001-002-----0
370
    35
100
AcDbSpline
210
0.0
220
0.0
230
1.0
 70
     0
 71
     3
 72
     8
 73
     4
 74
     0
 42
0.0000000001
 43
0.0000000001
 40
0.0
 40
0.0
 40
0.0
 40
0.0
 40
1.0
 40
1.0
 40
1.0
 40
1.0
 10
-56.4236
 20
-48.091300000000004
 30
0.0
 10
-56.4236
 20
-48.091300000000004
 30
0.0
 10
-53.335599999999999
 20
-48.091300000000004
 30
0.0
 10
-53.335599999999999
 20
-48.091300000000004
 30
0.0
  0
SPLINE
  5
58
100
AcDbEntity
  8
LC-001-002-----0
370
    35
100
AcDbSpline
210
0.0
220
0.0
230
1.0
 70
     0
 71
     3
 72
     8
 73
     4
 74
     0
 42
0.0000000001
 43
0.0000000001
 40
0.0
 40
0.0
 40
0.0
 40
0.0
 40
1.0
 40
1.0
 40
1.0
 40
1.0
 10
-53.335800000000006
 20
-15.474500000000001
 30
0.0
 10
-53.335800000000006
 20
-15.474500000000001
 30
0.0
 10
-56.4238
 20
-15.474500000000001
 30
0.0
 10
-56.4238
 20
-15.474500000000001
 30
0.0
  0
SPLINE
  5
59
100
AcDbEntity
  8
LC-001-002-----0
370
    35
100
AcDbSpline
210
0.0
220
0.0
230
1.0
 70
     0
 71
     3
 72
     8
 73
     4
 74
     0
 42
0.0000000001
 43
0.0000000001
 40
0.0
 40
0.0
 40
0.0
 40
0.0
 40
1.0
 40
1.0
 40
1.0
 40
1.0
 10
-51.791800000000002
 20
-16.150100000000002
 30
0.0
 10
-51.791800000000002
 20
-16.150100000000002
 30
0.0
 10
-52.177800000000005
 20
-16.150100000000002
 30
0.0
 10
-52.177800000000005
 20
-16.150100000000002
 30
0.0
  0
SPLINE
  5
5A
100
AcDbEntity
  8
LC-001-002-----0
370
    35
100
AcDbSpline
210
0.0
220
0.0
230
1.0
 70
     0
 71
     3
 72
     8
 73
     4
 74
     0
 42
0.0000000001
 43
0.0000000001
 40
0.0
 40
0.0
 40
0.0
 40
0.0
 40
1.0
 40
1.0
 40
1.0
 40
1.0
 10
-51.791700000000006
 20
-47.415800000000004
 30
0.0
 10
-51.791700000000006
 20
-47.415800000000004
 30
0.0
 10
-52.177600000000005
 20
-47.415800000000004
 30
0.0
 10
-52.177600000000005
 20
-47.415800000000004
 30
0.0
  0
SPLINE
  5
5B
100
AcDbEntity
  8
LC-001-002-----0
370
    35
100
AcDbSpline
210
0.0
220
0.0
230
1.0
 70
     0
 71
     3
 72
    12
 73
     8
 74
     0
 42
0.0000000001
 43
0.0000000001
 40
0.0
 40
0.0
 40
0.0
 40
0.0
 40
0.5
 40
0.5
 40
0.5
 40
0.5
 40
1.0
 40
1.0
 40
1.0
 40
1.0
 10
-52.177800000000005
 20
-15.474500000000001
 30
0.0
 10
-52.177800000000005
 20
-15.167400000000001
 30
0.0
 10
-52.299700000000001
 20
-14.872900000000001
 30
0.0
 10
-52.5169
 20
-14.655600000000002
 30
0.0
 10
-52.5169
 20
-14.655600000000002
 30
0.0
 10
-52.734000000000002
 20
-14.438500000000001
 30
0.0
 10
-53.028600000000004
 20
-14.316500000000001
 30
0.0
 10
-53.335800000000006
 20
-14.316500000000001
 30
0.0
  0
SPLINE
  5
5C
100
AcDbEntity
  8
LC-001-002-----0
370
    35
100
AcDbSpline
210
0.0
220
0.0
230
1.0
 70
     0
 71
     3
 72
     8
 73
     4
 74
     0
 42
0.0000000001
 43
0.0000000001
 40
0.0
 40
0.0
 40
0.0
 40
0.0
 40
1.0
 40
1.0
 40
1.0
 40
1.0
 10
-53.335800000000006
 20
-14.316500000000001
 30
0.0
 10
-53.335800000000006
 20
-14.316500000000001
 30
0.0
 10
-56.4238
 20
-14.316500000000001
 30
0.0
 10
-56.4238
 20
-14.316500000000001
 30
0.0
  0
SPLINE
  5
5D
100
AcDbEntity
  8
LC-001-002-----0
370
    35
100
AcDbSpline
210
0.0
220
0.0
230
1.0
 70
     0
 71
     3
 72
    12
 73
     8
 74
     0
 42
0.0000000001
 43
0.0000000001
 40
0.0
 40
0.0
 40
0.0
 40
0.0
 40
0.5
 40
0.5
 40
0.5
 40
0.5
 40
1.0
 40
1.0
 40
1.0
 40
1.0
 10
-53.335599999999999
 20
-49.249300000000005
 30
0.0
 10
-53.028600000000004
 20
-49.249300000000005
 30
0.0
 10
-52.734000000000002
 20
-49.127300000000005
 30
0.0
 10
-52.516800000000003
 20
-48.910000000000004
 30
0.0
 10
-52.516800000000003
 20
-48.910000000000004
 30
0.0
 10
-52.299600000000005
 20
-48.692900000000002
 30
0.0
 10
-52.177600000000005
 20
-48.398299999999999
 30
0.0
 10
-52.177600000000005
 20
-48.091300000000004
 30
0.0
  0
SPLINE
  5
5E
100
AcDbEntity
  8
LC-001-002-----0
370
    35
100
AcDbSpline
210
0.0
220
0.0
230
1.0
 70
     0
 71
     3
 72
     8
 73
     4
 74
     0
 42
0.0000000001
 43
0.0000000001
 40
0.0
 40
0.0
 40
0.0
 40
0.0
 40
1.0
 40
1.0
 40
1.0
 40
1.0
 10
-56.4236
 20
-49.249300000000005
 30
0.0
 10
-56.4236
 20
-49.249300000000005
 30
0.0
 10
-53.335599999999999
 20
-49.249300000000005
 30
0.0
 10
-53.335599999999999
 20
-49.249300000000005
 30
0.0
  0
SPLINE
  5
5F
100
AcDbEntity
  8
LC-001-002-----0
370
    35
100
AcDbSpline
210
0.0
220
0.0
230
1.0
 70
     0
 71
     3
 72
     8
 73
     4
 74
     0
 42
0.0000000001
 43
0.0000000001
 40
0.0
 40
0.0
 40
0.0
 40
0.0
 40
1.0
 40
1.0
 40
1.0
 40
1.0
 10
-24.9648
 20
-1.0864
 30
0.0
 10
-25.817600000000002
 20
-1.0864
 30
0.0
 10
-26.508800000000001
 20
-1.7776000000000001
 30
0.0
 10
-26.508800000000001
 20
-2.6303000000000001
 30
0.0
  0
SPLINE
  5
60
100
AcDbEntity
  8
LC-001-002-----0
370
    35
100
AcDbSpline
210
0.0
220
0.0
230
1.0
 70
     0
 71
     3
 72
     8
 73
     4
 74
     0
 42
0.0000000001
 43
0.0000000001
 40
0.0
 40
0.0
 40
0.0
 40
0.0
 40
1.0
 40
1.0
 40
1.0
 40
1.0
 10
-5.5885000000000007
 20
-1.0862000000000001
 30
0.0
 10
-5.5885000000000007
 20
-1.0862000000000001
 30
0.0
 10
-24.9648
 20
-1.0864
 30
0.0
 10
-24.9648
 20
-1.0864
 30
0.0
  0
SPLINE
  5
61
100
AcDbEntity
  8
LC-001-002-----0
370
    35
100
AcDbSpline
210
0.0
220
0.0
230
1.0
 70
     0
 71
     3
 72
     8
 73
     4
 74
     0
 42
0.0000000001
 43
0.0000000001
 40
0.0
 40
0.0
 40
0.0
 40
0.0
 40
1.0
 40
1.0
 40
1.0
 40
1.0
 10
-26.508700000000001
 20
-50.899300000000004
 30
0.0
 10
-26.508700000000001
 20
-51.752000000000002
 30
0.0
 10
-25.817400000000003
 20
-52.443300000000001
 30
0.0
 10
-24.964700000000001
 20
-52.443300000000001
 30
0.0
  0
SPLINE
  5
62
100
AcDbEntity
  8
LC-001-002-----0
370
    35
100
AcDbSpline
210
0.0
220
0.0
230
1.0
 70
     0
 71
     3
 72
     8
 73
     4
 74
     0
 42
0.0000000001
 43
0.0000000001
 40
0.0
 40
0.0
 40
0.0
 40
0.0
 40
1.0
 40
1.0
 40
1.0
 40
1.0
 10
-5.5884
 20
-52.443200000000004
 30
0.0
 10
-5.5884
 20
-52.443200000000004
 30
0.0
 10
-24.964700000000001
 20
-52.443300000000001
 30
0.0
 10
-24.964700000000001
 20
-52.443300000000001
 30
0.0
  0
SPLINE
  5
63
100
AcDbEntity
  8
LC-001-002-----0
370
    35
100
AcDbSpline
210
0.0
220
0.0
230
1.0
 70
     0
 71
     3
 72
     8
 73
     4
 74
     0
 42
0.0000000001
 43
0.0000000001
 40
0.0
 40
0.0
 40
0.0
 40
0.0
 40
1.0
 40
1.0
 40
1.0
 40
1.0
 10
-36.737700000000004
 20
-47.415700000000001
 30
0.0
 10
-36.737700000000004
 20
-47.415700000000001
 30
0.0
 10
-26.508700000000001
 20
-49.451800000000006
 30
0.0
 10
-26.508700000000001
 20
-49.451800000000006
 30
0.0
  0
SPLINE
  5
64
100
AcDbEntity
  8
LC-001-002-----0
370
    35
100
AcDbSpline
210
0.0
220
0.0
230
1.0
 70
     0
 71
     3
 72
     8
 73
     4
 74
     0
 42
0.0000000001
 43
0.0000000001
 40
0.0
 40
0.0
 40
0.0
 40
0.0
 40
1.0
 40
1.0
 40
1.0
 40
1.0
 10
-5.9641999999999999
 20
-6.7942
 30
0.0
 10
-5.9641999999999999
 20
-6.7942
 30
0.0
 10
-3.7348000000000003
 20
-2.4371
 30
0.0
 10
-3.7348000000000003
 20
-2.4371
 30
0.0
  0
SPLINE
  5
65
100
AcDbEntity
  8
LC-001-002-----0
370
    35
100
AcDbSpline
210
0.0
220
0.0
230
1.0
 70
     0
 71
     3
 72
     8
 73
     4
 74
     0
 42
0.0000000001
 43
0.0000000001
 40
0.0
 40
0.0
 40
0.0
 40
0.0
 40
1.0
 40
1.0
 40
1.0
 40
1.0
 10
-5.9641000000000002
 20
-49.484400000000001
 30
0.0
 10
-5.9641000000000002
 20
-49.484400000000001
 30
0.0
 10
-5.9641999999999999
 20
-4.0452000000000004
 30
0.0
 10
-5.9641999999999999
 20
-4.0452000000000004
 30
0.0
  0
SPLINE
  5
66
100
AcDbEntity
  8
LC-001-002-----0
370
    35
100
AcDbSpline
210
0.0
220
0.0
230
1.0
 70
     0
 71
     3
 72
     8
 73
     4
 74
     0
 42
0.0000000001
 43
0.0000000001
 40
0.0
 40
0.0
 40
0.0
 40
0.0
 40
1.0
 40
1.0
 40
1.0
 40
1.0
 10
-13.259400000000001
 20
-6.7943000000000007
 30
0.0
 10
-13.259400000000001
 20
-6.7943000000000007
 30
0.0
 10
-11.559100000000001
 20
-3.8492000000000002
 30
0.0
 10
-11.559100000000001
 20
-3.8492000000000002
 30
0.0
  0
SPLINE
  5
67
100
AcDbEntity
  8
LC-001-002-----0
370
    35
100
AcDbSpline
210
0.0
220
0.0
230
1.0
 70
     0
 71
     3
 72
     8
 73
     4
 74
     0
 42
0.0000000001
 43
0.0000000001
 40
0.0
 40
0.0
 40
0.0
 40
0.0
 40
1.0
 40
1.0
 40
1.0
 40
1.0
 10
-13.9909
 20
-3.8492000000000002
 30
0.0
 10
-13.9909
 20
-3.8492000000000002
 30
0.0
 10
-15.6912
 20
-6.7943000000000007
 30
0.0
 10
-15.6912
 20
-6.7943000000000007
 30
0.0
  0
SPLINE
  5
68
100
AcDbEntity
  8
LC-001-002-----0
370
    35
100
AcDbSpline
210
0.0
220
0.0
230
1.0
 70
     0
 71
     3
 72
     8
 73
     4
 74
     0
 42
0.0000000001
 43
0.0000000001
 40
0.0
 40
0.0
 40
0.0
 40
0.0
 40
1.0
 40
1.0
 40
1.0
 40
1.0
 10
-16.422700000000003
 20
-3.8492000000000002
 30
0.0
 10
-16.422700000000003
 20
-3.8492000000000002
 30
0.0
 10
-18.135300000000001
 20
-6.8155000000000001
 30
0.0
 10
-18.135300000000001
 20
-6.8155000000000001
 30
0.0
  0
SPLINE
  5
69
100
AcDbEntity
  8
LC-001-002-----0
370
    35
100
AcDbSpline
210
0.0
220
0.0
230
1.0
 70
     0
 71
     3
 72
     8
 73
     4
 74
     0
 42
0.0000000001
 43
0.0000000001
 40
0.0
 40
0.0
 40
0.0
 40
0.0
 40
1.0
 40
1.0
 40
1.0
 40
1.0
 10
-18.866700000000002
 20
-3.8704000000000001
 30
0.0
 10
-18.866700000000002
 20
-3.8704000000000001
 30
0.0
 10
-20.5793
 20
-6.8368000000000002
 30
0.0
 10
-20.5793
 20
-6.8368000000000002
 30
0.0
  0
SPLINE
  5
6A
100
AcDbEntity
  8
LC-001-002-----0
370
    35
100
AcDbSpline
210
0.0
220
0.0
230
1.0
 70
     0
 71
     3
 72
     8
 73
     4
 74
     0
 42
0.0000000001
 43
0.0000000001
 40
0.0
 40
0.0
 40
0.0
 40
0.0
 40
1.0
 40
1.0
 40
1.0
 40
1.0
 10
-10.8277
 20
-13.2597
 30
0.0
 10
-10.8277
 20
-13.2597
 30
0.0
 10
-10.8276
 20
-43.019000000000005
 30
0.0
 10
-10.8276
 20
-43.019000000000005
 30
0.0
  0
SPLINE
  5
6B
100
AcDbEntity
  8
LC-001-002-----0
370
    35
100
AcDbSpline
210
0.0
220
0.0
230
1.0
 70
     0
 71
     3
 72
     8
 73
     4
 74
     0
 42
0.0000000001
 43
0.0000000001
 40
0.0
 40
0.0
 40
0.0
 40
0.0
 40
1.0
 40
1.0
 40
1.0
 40
1.0
 10
-18.866600000000002
 20
-49.701599999999999
 30
0.0
 10
-18.866600000000002
 20
-49.701599999999999
 30
0.0
 10
-20.577999999999999
 20
-46.7376
 30
0.0
 10
-20.577999999999999
 20
-46.7376
 30
0.0
  0
SPLINE
  5
6C
100
AcDbEntity
  8
LC-001-002-----0
370
    35
100
AcDbSpline
210
0.0
220
0.0
230
1.0
 70
     0
 71
     3
 72
     8
 73
     4
 74
     0
 42
0.0000000001
 43
0.0000000001
 40
0.0
 40
0.0
 40
0.0
 40
0.0
 40
1.0
 40
1.0
 40
1.0
 40
1.0
 10
-23.025200000000002
 20
-34.566200000000002
 30
0.0
 10
-23.025200000000002
 20
-34.566200000000002
 30
0.0
 10
-23.025100000000002
 20
-49.834099999999999
 30
0.0
 10
-23.025100000000002
 20
-49.834099999999999
 30
0.0
  0
SPLINE
  5
6D
100
AcDbEntity
  8
LC-001-002-----0
370
    35
100
AcDbSpline
210
0.0
220
0.0
230
1.0
 70
     0
 71
     3
 72
     8
 73
     4
 74
     0
 42
0.0000000001
 43
0.0000000001
 40
0.0
 40
0.0
 40
0.0
 40
0.0
 40
1.0
 40
1.0
 40
1.0
 40
1.0
 10
-35.174199999999999
 20
-17.312799999999999
 30
0.0
 10
-35.174199999999999
 20
-17.312799999999999
 30
0.0
 10
-35.174199999999999
 20
-46.262599999999999
 30
0.0
 10
-35.174199999999999
 20
-46.262599999999999
 30
0.0
  0
SPLINE
  5
6E
100
AcDbEntity
  8
LC-001-002-----0
370
    35
100
AcDbSpline
210
0.0
220
0.0
230
1.0
 70
     0
 71
     3
 72
     8
 73
     4
 74
     0
 42
0.0000000001
 43
0.0000000001
 40
0.0
 40
0.0
 40
0.0
 40
0.0
 40
1.0
 40
1.0
 40
1.0
 40
1.0
 10
-20.577999999999999
 20
-41.7029
 30
0.0
 10
-20.577999999999999
 20
-41.7029
 30
0.0
 10
-20.577999999999999
 20
-41.7029
 30
0.0
 10
-20.577999999999999
 20
-41.7029
 30
0.0
  0
SPLINE
  5
6F
100
AcDbEntity
  8
LC-001-002-----0
370
    35
100
AcDbSpline
210
0.0
220
0.0
230
1.0
 70
     0
 71
     3
 72
     8
 73
     4
 74
     0
 42
0.0000000001
 43
0.0000000001
 40
0.0
 40
0.0
 40
0.0
 40
0.0
 40
1.0
 40
1.0
 40
1.0
 40
1.0
 10
-3.7348000000000003
 20
-2.4371
 30
0.0
 10
-3.7348000000000003
 20
-2.4371
 30
0.0
 10
-3.7345000000000002
 20
-51.092200000000005
 30
0.0
 10
-3.7345000000000002
 20
-51.092200000000005
 30
0.0
  0
SPLINE
  5
70
100
AcDbEntity
  8
LC-001-002-----0
370
    35
100
AcDbSpline
210
0.0
220
0.0
230
1.0
 70
     0
 71
     3
 72
     8
 73
     4
 74
     0
 42
0.0000000001
 43
0.0000000001
 40
0.0
 40
0.0
 40
0.0
 40
0.0
 40
1.0
 40
1.0
 40
1.0
 40
1.0
 10
-9.1273
 20
-3.8492000000000002
 30
0.0
 10
-9.1273
 20
-3.8492000000000002
 30
0.0
 10
-10.8277
 20
-6.7942
 30
0.0
 10
-10.8277
 20
-6.7942
 30
0.0
  0
SPLINE
  5
71
100
AcDbEntity
  8
LC-001-002-----0
370
    35
100
AcDbSpline
210
0.0
220
0.0
230
1.0
 70
     0
 71
     3
 72
     8
 73
     4
 74
     0
 42
0.0000000001
 43
0.0000000001
 40
0.0
 40
0.0
 40
0.0
 40
0.0
 40
1.0
 40
1.0
 40
1.0
 40
1.0
 10
-13.259300000000001
 20
-49.484400000000001
 30
0.0
 10
-13.259300000000001
 20
-49.484400000000001
 30
0.0
 10
-13.259400000000001
 20
-4.0452000000000004
 30
0.0
 10
-13.259400000000001
 20
-4.0452000000000004
 30
0.0
  0
SPLINE
  5
72
100
AcDbEntity
  8
LC-001-002-----0
370
    35
100
AcDbSpline
210
0.0
220
0.0
230
1.0
 70
     0
 71
     3
 72
     8
 73
     4
 74
     0
 42
0.0000000001
 43
0.0000000001
 40
0.0
 40
0.0
 40
0.0
 40
0.0
 40
1.0
 40
1.0
 40
1.0
 40
1.0
 10
-21.3108
 20
-3.8916000000000004
 30
0.0
 10
-21.3108
 20
-3.8916000000000004
 30
0.0
 10
-23.023500000000002
 20
-6.8580000000000005
 30
0.0
 10
-23.023500000000002
 20
-6.8580000000000005
 30
0.0
  0
SPLINE
  5
73
100
AcDbEntity
  8
LC-001-002-----0
370
    35
100
AcDbSpline
210
0.0
220
0.0
230
1.0
 70
     0
 71
     3
 72
     8
 73
     4
 74
     0
 42
0.0000000001
 43
0.0000000001
 40
0.0
 40
0.0
 40
0.0
 40
0.0
 40
1.0
 40
1.0
 40
1.0
 40
1.0
 10
-23.023300000000003
 20
-40.2879
 30
0.0
 10
-23.023300000000003
 20
-40.2879
 30
0.0
 10
-23.023500000000002
 20
-3.6957
 30
0.0
 10
-23.023500000000002
 20
-3.6957
 30
0.0
  0
SPLINE
  5
74
100
AcDbEntity
  8
LC-001-002-----0
370
    35
100
AcDbSpline
210
0.0
220
0.0
230
1.0
 70
     0
 71
     3
 72
     8
 73
     4
 74
     0
 42
0.0000000001
 43
0.0000000001
 40
0.0
 40
0.0
 40
0.0
 40
0.0
 40
1.0
 40
1.0
 40
1.0
 40
1.0
 10
-18.135200000000001
 20
-16.213200000000001
 30
0.0
 10
-18.135200000000001
 20
-16.213200000000001
 30
0.0
 10
-18.135200000000001
 20
-49.505600000000001
 30
0.0
 10
-18.135200000000001
 20
-49.505600000000001
 30
0.0
  0
SPLINE
  5
75
100
AcDbEntity
  8
LC-001-002-----0
370
    35
100
AcDbSpline
210
0.0
220
0.0
230
1.0
 70
     0
 71
     3
 72
     8
 73
     4
 74
     0
 42
0.0000000001
 43
0.0000000001
 40
0.0
 40
0.0
 40
0.0
 40
0.0
 40
1.0
 40
1.0
 40
1.0
 40
1.0
 10
-13.9908
 20
-49.680400000000006
 30
0.0
 10
-13.9908
 20
-49.680400000000006
 30
0.0
 10
-15.6911
 20
-46.735300000000002
 30
0.0
 10
-15.6911
 20
-46.735300000000002
 30
0.0
  0
SPLINE
  5
76
100
AcDbEntity
  8
LC-001-002-----0
370
    35
100
AcDbSpline
210
0.0
220
0.0
230
1.0
 70
     0
 71
     3
 72
     8
 73
     4
 74
     0
 42
0.0000000001
 43
0.0000000001
 40
0.0
 40
0.0
 40
0.0
 40
0.0
 40
1.0
 40
1.0
 40
1.0
 40
1.0
 10
-16.422599999999999
 20
-49.680400000000006
 30
0.0
 10
-16.422599999999999
 20
-49.680400000000006
 30
0.0
 10
-18.135200000000001
 20
-46.714000000000006
 30
0.0
 10
-18.135200000000001
 20
-46.714000000000006
 30
0.0
  0
SPLINE
  5
77
100
AcDbEntity
  8
LC-001-002-----0
370
    35
100
AcDbSpline
210
0.0
220
0.0
230
1.0
 70
     0
 71
     3
 72
     8
 73
     4
 74
     0
 42
0.0000000001
 43
0.0000000001
 40
0.0
 40
0.0
 40
0.0
 40
0.0
 40
1.0
 40
1.0
 40
1.0
 40
1.0
 10
-24.977500000000003
 20
-49.238199999999999
 30
0.0
 10
-24.977500000000003
 20
-49.238199999999999
 30
0.0
 10
-23.773500000000002
 20
-49.238199999999999
 30
0.0
 10
-23.773500000000002
 20
-49.238199999999999
 30
0.0
  0
SPLINE
  5
78
100
AcDbEntity
  8
LC-001-002-----0
370
    35
100
AcDbSpline
210
0.0
220
0.0
230
1.0
 70
     0
 71
     3
 72
     8
 73
     4
 74
     0
 42
0.0000000001
 43
0.0000000001
 40
0.0
 40
0.0
 40
0.0
 40
0.0
 40
1.0
 40
1.0
 40
1.0
 40
1.0
 10
-6.6956000000000007
 20
-3.8492000000000002
 30
0.0
 10
-6.6956000000000007
 20
-3.8492000000000002
 30
0.0
 10
-8.395900000000001
 20
-6.7942
 30
0.0
 10
-8.395900000000001
 20
-6.7942
 30
0.0
  0
SPLINE
  5
79
100
AcDbEntity
  8
LC-001-002-----0
370
    35
100
AcDbSpline
210
0.0
220
0.0
230
1.0
 70
     0
 71
     3
 72
     8
 73
     4
 74
     0
 42
0.0000000001
 43
0.0000000001
 40
0.0
 40
0.0
 40
0.0
 40
0.0
 40
1.0
 40
1.0
 40
1.0
 40
1.0
 10
-6.6953000000000005
 20
-49.680400000000006
 30
0.0
 10
-6.6953000000000005
 20
-49.680400000000006
 30
0.0
 10
-8.3956999999999997
 20
-46.735300000000002
 30
0.0
 10
-8.3956999999999997
 20
-46.735300000000002
 30
0.0
  0
SPLINE
  5
7A
100
AcDbEntity
  8
LC-001-002-----0
370
    35
100
AcDbSpline
210
0.0
220
0.0
230
1.0
 70
     0
 71
     3
 72
     8
 73
     4
 74
     0
 42
0.0000000001
 43
0.0000000001
 40
0.0
 40
0.0
 40
0.0
 40
0.0
 40
1.0
 40
1.0
 40
1.0
 40
1.0
 10
-8.3956999999999997
 20
-49.484400000000001
 30
0.0
 10
-8.3956999999999997
 20
-49.484400000000001
 30
0.0
 10
-8.395900000000001
 20
-4.0452000000000004
 30
0.0
 10
-8.395900000000001
 20
-4.0452000000000004
 30
0.0
  0
SPLINE
  5
7B
100
AcDbEntity
  8
LC-001-002-----0
370
    35
100
AcDbSpline
210
0.0
220
0.0
230
1.0
 70
     0
 71
     3
 72
     8
 73
     4
 74
     0
 42
0.0000000001
 43
0.0000000001
 40
0.0
 40
0.0
 40
0.0
 40
0.0
 40
1.0
 40
1.0
 40
1.0
 40
1.0
 10
-5.5884
 20
-52.443200000000004
 30
0.0
 10
-5.5884
 20
-52.443200000000004
 30
0.0
 10
-5.5884
 20
-51.285200000000003
 30
0.0
 10
-5.5884
 20
-51.285200000000003
 30
0.0
  0
SPLINE
  5
7C
100
AcDbEntity
  8
LC-001-002-----0
370
    35
100
AcDbSpline
210
0.0
220
0.0
230
1.0
 70
     0
 71
     3
 72
     8
 73
     4
 74
     0
 42
0.0000000001
 43
0.0000000001
 40
0.0
 40
0.0
 40
0.0
 40
0.0
 40
1.0
 40
1.0
 40
1.0
 40
1.0
 10
-5.5885000000000007
 20
-2.2442000000000002
 30
0.0
 10
-5.5885000000000007
 20
-2.2442000000000002
 30
0.0
 10
-5.5885000000000007
 20
-1.0862000000000001
 30
0.0
 10
-5.5885000000000007
 20
-1.0862000000000001
 30
0.0
  0
SPLINE
  5
7D
100
AcDbEntity
  8
LC-001-002-----0
370
    35
100
AcDbSpline
210
0.0
220
0.0
230
1.0
 70
     0
 71
     3
 72
     8
 73
     4
 74
     0
 42
0.0000000001
 43
0.0000000001
 40
0.0
 40
0.0
 40
0.0
 40
0.0
 40
1.0
 40
1.0
 40
1.0
 40
1.0
 10
-18.123000000000001
 20
-2.2443
 30
0.0
 10
-18.123000000000001
 20
-2.2443
 30
0.0
 10
-24.2057
 20
-2.2443
 30
0.0
 10
-24.2057
 20
-2.2443
 30
0.0
  0
SPLINE
  5
7E
100
AcDbEntity
  8
LC-001-002-----0
370
    35
100
AcDbSpline
210
0.0
220
0.0
230
1.0
 70
     0
 71
     3
 72
     8
 73
     4
 74
     0
 42
0.0000000001
 43
0.0000000001
 40
0.0
 40
0.0
 40
0.0
 40
0.0
 40
1.0
 40
1.0
 40
1.0
 40
1.0
 10
-18.123000000000001
 20
-2.4373
 30
0.0
 10
-18.123000000000001
 20
-2.4373
 30
0.0
 10
-24.2057
 20
-2.4373
 30
0.0
 10
-24.2057
 20
-2.4373
 30
0.0
  0
SPLINE
  5
7F
100
AcDbEntity
  8
LC-001-002-----0
370
    35
100
AcDbSpline
210
0.0
220
0.0
230
1.0
 70
     0
 71
     3
 72
     8
 73
     4
 74
     0
 42
0.0000000001
 43
0.0000000001
 40
0.0
 40
0.0
 40
0.0
 40
0.0
 40
1.0
 40
1.0
 40
1.0
 40
1.0
 10
-24.977700000000002
 20
-3.2093000000000003
 30
0.0
 10
-24.977700000000002
 20
-3.2093000000000003
 30
0.0
 10
-24.977700000000002
 20
-4.2915999999999999
 30
0.0
 10
-24.977700000000002
 20
-4.2915999999999999
 30
0.0
  0
SPLINE
  5
80
100
AcDbEntity
  8
LC-001-002-----0
370
    35
100
AcDbSpline
210
0.0
220
0.0
230
1.0
 70
     0
 71
     3
 72
     8
 73
     4
 74
     0
 42
0.0000000001
 43
0.0000000001
 40
0.0
 40
0.0
 40
0.0
 40
0.0
 40
1.0
 40
1.0
 40
1.0
 40
1.0
 10
-18.122800000000002
 20
-51.092400000000005
 30
0.0
 10
-18.122800000000002
 20
-51.092400000000005
 30
0.0
 10
-24.205400000000001
 20
-51.092400000000005
 30
0.0
 10
-24.205400000000001
 20
-51.092400000000005
 30
0.0
  0
SPLINE
  5
81
100
AcDbEntity
  8
LC-001-002-----0
370
    35
100
AcDbSpline
210
0.0
220
0.0
230
1.0
 70
     0
 71
     3
 72
     8
 73
     4
 74
     0
 42
0.0000000001
 43
0.0000000001
 40
0.0
 40
0.0
 40
0.0
 40
0.0
 40
1.0
 40
1.0
 40
1.0
 40
1.0
 10
-24.977500000000003
 20
-50.320599999999999
 30
0.0
 10
-24.977500000000003
 20
-50.320599999999999
 30
0.0
 10
-24.977500000000003
 20
-49.238199999999999
 30
0.0
 10
-24.977500000000003
 20
-49.238199999999999
 30
0.0
  0
SPLINE
  5
82
100
AcDbEntity
  8
LC-001-002-----0
370
    35
100
AcDbSpline
210
0.0
220
0.0
230
1.0
 70
     0
 71
     3
 72
     8
 73
     4
 74
     0
 42
0.0000000001
 43
0.0000000001
 40
0.0
 40
0.0
 40
0.0
 40
0.0
 40
1.0
 40
1.0
 40
1.0
 40
1.0
 10
-25.1707
 20
-3.2093000000000003
 30
0.0
 10
-25.1707
 20
-3.2093000000000003
 30
0.0
 10
-25.1706
 20
-50.320500000000003
 30
0.0
 10
-25.1706
 20
-50.320500000000003
 30
0.0
  0
SPLINE
  5
83
100
AcDbEntity
  8
LC-001-002-----0
370
    35
100
AcDbSpline
210
0.0
220
0.0
230
1.0
 70
     0
 71
     3
 72
     8
 73
     4
 74
     0
 42
0.0000000001
 43
0.0000000001
 40
0.0
 40
0.0
 40
0.0
 40
0.0
 40
1.0
 40
1.0
 40
1.0
 40
1.0
 10
-18.122800000000002
 20
-51.285400000000003
 30
0.0
 10
-18.122800000000002
 20
-51.285400000000003
 30
0.0
 10
-24.2056
 20
-51.285400000000003
 30
0.0
 10
-24.2056
 20
-51.285400000000003
 30
0.0
  0
SPLINE
  5
84
100
AcDbEntity
  8
LC-001-002-----0
370
    20
  6
New Line1
100
AcDbSpline
210
0.0
220
0.0
230
1.0
 70
     0
 71
     3
 72
     8
 73
     4
 74
     0
 42
0.0000000001
 43
0.0000000001
 40
0.0
 40
0.0
 40
0.0
 40
0.0
 40
1.0
 40
1.0
 40
1.0
 40
1.0
 10
-25.1706
 20
-26.764800000000001
 30
0.0
 10
-25.1706
 20
-26.764800000000001
 30
0.0
 10
-3.7347000000000001
 20
-26.764700000000001
 30
0.0
 10
-3.7347000000000001
 20
-26.764700000000001
 30
0.0
  0
SPLINE
  5
86
100
AcDbEntity
  8
LC-001-002-----0
370
    20
  6
New Line2
100
AcDbSpline
210
0.0
220
0.0
230
1.0
 70
     0
 71
     3
 72
     8
 73
     4
 74
     0
 42
0.0000000001
 43
0.0000000001
 40
0.0
 40
0.0
 40
0.0
 40
0.0
 40
1.0
 40
1.0
 40
1.0
 40
1.0
 10
-58.739600000000003
 20
-31.782900000000001
 30
0.0
 10
-58.739600000000003
 20
-31.782900000000001
 30
0.0
 10
-25.1706
 20
-31.782800000000002
 30
0.0
 10
-25.1706
 20
-31.782800000000002
 30
0.0
  0
SPLINE
  5
88
100
AcDbEntity
  8
LC-001-002-----0
370
    35
100
AcDbSpline
210
0.0
220
0.0
230
1.0
 70
     0
 71
     3
 72
     8
 73
     4
 74
     0
 42
0.0000000001
 43
0.0000000001
 40
0.0
 40
0.0
 40
0.0
 40
0.0
 40
1.0
 40
1.0
 40
1.0
 40
1.0
 10
-26.508700000000001
 20
-50.899300000000004
 30
0.0
 10
-26.508700000000001
 20
-50.899300000000004
 30
0.0
 10
-26.508700000000001
 20
-46.450700000000005
 30
0.0
 10
-26.508700000000001
 20
-46.450700000000005
 30
0.0
  0
SPLINE
  5
89
100
AcDbEntity
  8
LC-001-002-----0
370
    35
100
AcDbSpline
210
0.0
220
0.0
230
1.0
 70
     0
 71
     3
 72
     8
 73
     4
 74
     0
 42
0.0000000001
 43
0.0000000001
 40
0.0
 40
0.0
 40
0.0
 40
0.0
 40
1.0
 40
1.0
 40
1.0
 40
1.0
 10
-31.863700000000001
 20
-16.982500000000002
 30
0.0
 10
-31.863700000000001
 20
-16.982500000000002
 30
0.0
 10
-35.174199999999999
 20
-16.154800000000002
 30
0.0
 10
-35.174199999999999
 20
-16.154800000000002
 30
0.0
  0
SPLINE
  5
8A
100
AcDbEntity
  8
LC-001-002-----0
370
    35
100
AcDbSpline
210
0.0
220
0.0
230
1.0
 70
     0
 71
     3
 72
     8
 73
     4
 74
     0
 42
0.0000000001
 43
0.0000000001
 40
0.0
 40
0.0
 40
0.0
 40
0.0
 40
1.0
 40
1.0
 40
1.0
 40
1.0
 10
-31.3338
 20
-18.308600000000002
 30
0.0
 10
-31.3338
 20
-18.308600000000002
 30
0.0
 10
-31.3337
 20
-45.257100000000001
 30
0.0
 10
-31.3337
 20
-45.257100000000001
 30
0.0
  0
SPLINE
  5
8B
100
AcDbEntity
  8
LC-001-002-----0
370
    35
100
AcDbSpline
210
0.0
220
0.0
230
1.0
 70
     0
 71
     3
 72
     8
 73
     4
 74
     0
 42
0.0000000001
 43
0.0000000001
 40
0.0
 40
0.0
 40
0.0
 40
0.0
 40
1.0
 40
1.0
 40
1.0
 40
1.0
 10
-31.294700000000002
 20
-46.450700000000005
 30
0.0
 10
-31.294700000000002
 20
-46.450700000000005
 30
0.0
 10
-26.508700000000001
 20
-46.450700000000005
 30
0.0
 10
-26.508700000000001
 20
-46.450700000000005
 30
0.0
  0
SPLINE
  5
8C
100
AcDbEntity
  8
LC-001-002-----0
370
    35
100
AcDbSpline
210
0.0
220
0.0
230
1.0
 70
     0
 71
     3
 72
     8
 73
     4
 74
     0
 42
0.0000000001
 43
0.0000000001
 40
0.0
 40
0.0
 40
0.0
 40
0.0
 40
1.0
 40
1.0
 40
1.0
 40
1.0
 10
-25.1707
 20
-8.2368000000000006
 30
0.0
 10
-25.1707
 20
-8.2368000000000006
 30
0.0
 10
-31.314200000000003
 20
-18.313400000000001
 30
0.0
 10
-31.314200000000003
 20
-18.313400000000001
 30
0.0
  0
SPLINE
  5
8D
100
AcDbEntity
  8
LC-001-002-----0
370
    35
100
AcDbSpline
210
0.0
220
0.0
230
1.0
 70
     0
 71
     3
 72
     8
 73
     4
 74
     0
 42
0.0000000001
 43
0.0000000001
 40
0.0
 40
0.0
 40
0.0
 40
0.0
 40
1.0
 40
1.0
 40
1.0
 40
1.0
 10
-26.526900000000001
 20
-8.2370000000000001
 30
0.0
 10
-26.526900000000001
 20
-8.2370000000000001
 30
0.0
 10
-31.860200000000003
 20
-16.9846
 30
0.0
 10
-31.860200000000003
 20
-16.9846
 30
0.0
  0
SPLINE
  5
8E
100
AcDbEntity
  8
LC-001-002-----0
370
    35
100
AcDbSpline
210
0.0
220
0.0
230
1.0
 70
     0
 71
     3
 72
     8
 73
     4
 74
     0
 42
0.0000000001
 43
0.0000000001
 40
0.0
 40
0.0
 40
0.0
 40
0.0
 40
1.0
 40
1.0
 40
1.0
 40
1.0
 10
-26.508800000000001
 20
-8.2071000000000005
 30
0.0
 10
-26.508800000000001
 20
-8.2071000000000005
 30
0.0
 10
-26.508800000000001
 20
-2.6303000000000001
 30
0.0
 10
-26.508800000000001
 20
-2.6303000000000001
 30
0.0
  0
SPLINE
  5
8F
100
AcDbEntity
  8
LC-001-002-----0
370
    35
100
AcDbSpline
210
0.0
220
0.0
230
1.0
 70
     0
 71
     3
 72
     8
 73
     4
 74
     0
 42
0.0000000001
 43
0.0000000001
 40
0.0
 40
0.0
 40
0.0
 40
0.0
 40
1.0
 40
1.0
 40
1.0
 40
1.0
 10
-26.508800000000001
 20
-4.0777999999999999
 30
0.0
 10
-26.508800000000001
 20
-4.0777999999999999
 30
0.0
 10
-36.7378
 20
-16.149900000000002
 30
0.0
 10
-36.7378
 20
-16.149900000000002
 30
0.0
  0
SPLINE
  5
90
100
AcDbEntity
  8
LC-001-002-----0
370
    35
100
AcDbSpline
210
0.0
220
0.0
230
1.0
 70
     0
 71
     3
 72
     8
 73
     4
 74
     0
 42
0.0000000001
 43
0.0000000001
 40
0.0
 40
0.0
 40
0.0
 40
0.0
 40
1.0
 40
1.0
 40
1.0
 40
1.0
 10
-5.9641000000000002
 20
-46.735300000000002
 30
0.0
 10
-5.9641000000000002
 20
-46.735300000000002
 30
0.0
 10
-3.7345000000000002
 20
-51.092300000000002
 30
0.0
 10
-3.7345000000000002
 20
-51.092300000000002
 30
0.0
  0
SPLINE
  5
91
100
AcDbEntity
  8
LC-001-002-----0
370
    35
100
AcDbSpline
210
0.0
220
0.0
230
1.0
 70
     0
 71
     3
 72
     8
 73
     4
 74
     0
 42
0.0000000001
 43
0.0000000001
 40
0.0
 40
0.0
 40
0.0
 40
0.0
 40
1.0
 40
1.0
 40
1.0
 40
1.0
 10
-53.721800000000002
 20
-15.474500000000001
 30
0.0
 10
-53.721800000000002
 20
-15.474500000000001
 30
0.0
 10
-53.721800000000002
 20
-15.8605
 30
0.0
 10
-53.721800000000002
 20
-15.8605
 30
0.0
  0
SPLINE
  5
92
100
AcDbEntity
  8
LC-001-002-----0
370
    35
100
AcDbSpline
210
0.0
220
0.0
230
1.0
 70
     0
 71
     3
 72
     8
 73
     4
 74
     0
 42
0.0000000001
 43
0.0000000001
 40
0.0
 40
0.0
 40
0.0
 40
0.0
 40
1.0
 40
1.0
 40
1.0
 40
1.0
 10
-53.721800000000002
 20
-15.8605
 30
0.0
 10
-53.721800000000002
 20
-15.8605
 30
0.0
 10
-54.107800000000005
 20
-15.8605
 30
0.0
 10
-54.107800000000005
 20
-15.8605
 30
0.0
  0
SPLINE
  5
93
100
AcDbEntity
  8
LC-001-002-----0
370
    35
100
AcDbSpline
210
0.0
220
0.0
230
1.0
 70
     0
 71
     3
 72
     8
 73
     4
 74
     0
 42
0.0000000001
 43
0.0000000001
 40
0.0
 40
0.0
 40
0.0
 40
0.0
 40
1.0
 40
1.0
 40
1.0
 40
1.0
 10
-54.107800000000005
 20
-15.8605
 30
0.0
 10
-54.107800000000005
 20
-15.8605
 30
0.0
 10
-54.107800000000005
 20
-15.474500000000001
 30
0.0
 10
-54.107800000000005
 20
-15.474500000000001
 30
0.0
  0
SPLINE
  5
94
100
AcDbEntity
  8
LC-001-002-----0
370
    35
100
AcDbSpline
210
0.0
220
0.0
230
1.0
 70
     0
 71
     3
 72
     8
 73
     4
 74
     0
 42
0.0000000001
 43
0.0000000001
 40
0.0
 40
0.0
 40
0.0
 40
0.0
 40
1.0
 40
1.0
 40
1.0
 40
1.0
 10
-53.335800000000006
 20
-16.6325
 30
0.0
 10
-53.335800000000006
 20
-16.6325
 30
0.0
 10
-54.4938
 20
-16.6325
 30
0.0
 10
-54.4938
 20
-16.6325
 30
0.0
  0
SPLINE
  5
95
100
AcDbEntity
  8
LC-001-002-----0
370
    35
100
AcDbSpline
210
0.0
220
0.0
230
1.0
 70
     0
 71
     3
 72
     8
 73
     4
 74
     0
 42
0.0000000001
 43
0.0000000001
 40
0.0
 40
0.0
 40
0.0
 40
0.0
 40
1.0
 40
1.0
 40
1.0
 40
1.0
 10
-54.370699999999999
 20
-17.0152
 30
0.0
 10
-54.370699999999999
 20
-17.0152
 30
0.0
 10
-54.4938
 20
-16.6325
 30
0.0
 10
-54.4938
 20
-16.6325
 30
0.0
  0
SPLINE
  5
96
100
AcDbEntity
  8
LC-001-002-----0
370
    35
100
AcDbSpline
210
0.0
220
0.0
230
1.0
 70
     0
 71
     3
 72
     8
 73
     4
 74
     0
 42
0.0000000001
 43
0.0000000001
 40
0.0
 40
0.0
 40
0.0
 40
0.0
 40
1.0
 40
1.0
 40
1.0
 40
1.0
 10
-56.4238
 20
-16.6325
 30
0.0
 10
-56.4238
 20
-16.6325
 30
0.0
 10
-54.617600000000003
 20
-17.256600000000002
 30
0.0
 10
-54.617600000000003
 20
-17.256600000000002
 30
0.0
  0
SPLINE
  5
97
100
AcDbEntity
  8
LC-001-002-----0
370
    35
100
AcDbSpline
210
0.0
220
0.0
230
1.0
 70
     0
 71
     3
 72
     8
 73
     4
 74
     0
 42
0.0000000001
 43
0.0000000001
 40
0.0
 40
0.0
 40
0.0
 40
0.0
 40
1.0
 40
1.0
 40
1.0
 40
1.0
 10
-52.177800000000005
 20
-16.150100000000002
 30
0.0
 10
-52.177800000000005
 20
-16.150100000000002
 30
0.0
 10
-52.177800000000005
 20
-15.474500000000001
 30
0.0
 10
-52.177800000000005
 20
-15.474500000000001
 30
0.0
  0
SPLINE
  5
98
100
AcDbEntity
  8
LC-001-002-----0
370
    35
100
AcDbSpline
210
0.0
220
0.0
230
1.0
 70
     0
 71
     3
 72
     8
 73
     4
 74
     0
 42
0.0000000001
 43
0.0000000001
 40
0.0
 40
0.0
 40
0.0
 40
0.0
 40
1.0
 40
1.0
 40
1.0
 40
1.0
 10
-56.4238
 20
-17.3079
 30
0.0
 10
-56.4238
 20
-17.3079
 30
0.0
 10
-56.4238
 20
-15.474500000000001
 30
0.0
 10
-56.4238
 20
-15.474500000000001
 30
0.0
  0
SPLINE
  5
99
100
AcDbEntity
  8
LC-001-002-----0
370
    35
100
AcDbSpline
210
0.0
220
0.0
230
1.0
 70
     0
 71
     3
 72
     8
 73
     4
 74
     0
 42
0.0000000001
 43
0.0000000001
 40
0.0
 40
0.0
 40
0.0
 40
0.0
 40
1.0
 40
1.0
 40
1.0
 40
1.0
 10
-57.581800000000001
 20
-15.474500000000001
 30
0.0
 10
-57.581800000000001
 20
-15.474500000000001
 30
0.0
 10
-57.581800000000001
 20
-16.149900000000002
 30
0.0
 10
-57.581800000000001
 20
-16.149900000000002
 30
0.0
  0
SPLINE
  5
9A
100
AcDbEntity
  8
LC-001-002-----0
370
    35
100
AcDbSpline
210
0.0
220
0.0
230
1.0
 70
     0
 71
     3
 72
     8
 73
     4
 74
     0
 42
0.0000000001
 43
0.0000000001
 40
0.0
 40
0.0
 40
0.0
 40
0.0
 40
1.0
 40
1.0
 40
1.0
 40
1.0
 10
-52.177600000000005
 20
-47.415800000000004
 30
0.0
 10
-52.177600000000005
 20
-47.415800000000004
 30
0.0
 10
-52.177600000000005
 20
-48.091300000000004
 30
0.0
 10
-52.177600000000005
 20
-48.091300000000004
 30
0.0
  0
SPLINE
  5
9B
100
AcDbEntity
  8
LC-001-002-----0
370
    35
100
AcDbSpline
210
0.0
220
0.0
230
1.0
 70
     0
 71
     3
 72
     8
 73
     4
 74
     0
 42
0.0000000001
 43
0.0000000001
 40
0.0
 40
0.0
 40
0.0
 40
0.0
 40
1.0
 40
1.0
 40
1.0
 40
1.0
 10
-57.581600000000002
 20
-47.415700000000001
 30
0.0
 10
-57.581600000000002
 20
-47.415700000000001
 30
0.0
 10
-57.581600000000002
 20
-48.091300000000004
 30
0.0
 10
-57.581600000000002
 20
-48.091300000000004
 30
0.0
  0
SPLINE
  5
9C
100
AcDbEntity
  8
LC-001-002-----0
370
    35
100
AcDbSpline
210
0.0
220
0.0
230
1.0
 70
     0
 71
     3
 72
     8
 73
     4
 74
     0
 42
0.0000000001
 43
0.0000000001
 40
0.0
 40
0.0
 40
0.0
 40
0.0
 40
1.0
 40
1.0
 40
1.0
 40
1.0
 10
-56.4236
 20
-46.933300000000003
 30
0.0
 10
-56.4236
 20
-46.933300000000003
 30
0.0
 10
-54.6175
 20
-46.309100000000001
 30
0.0
 10
-54.6175
 20
-46.309100000000001
 30
0.0
  0
SPLINE
  5
9D
100
AcDbEntity
  8
LC-001-002-----0
370
    35
100
AcDbSpline
210
0.0
220
0.0
230
1.0
 70
     0
 71
     3
 72
     8
 73
     4
 74
     0
 42
0.0000000001
 43
0.0000000001
 40
0.0
 40
0.0
 40
0.0
 40
0.0
 40
1.0
 40
1.0
 40
1.0
 40
1.0
 10
-54.370699999999999
 20
-46.5505
 30
0.0
 10
-54.370699999999999
 20
-46.5505
 30
0.0
 10
-54.493600000000001
 20
-46.933300000000003
 30
0.0
 10
-54.493600000000001
 20
-46.933300000000003
 30
0.0
  0
SPLINE
  5
9E
100
AcDbEntity
  8
LC-001-002-----0
370
    35
100
AcDbSpline
210
0.0
220
0.0
230
1.0
 70
     0
 71
     3
 72
     8
 73
     4
 74
     0
 42
0.0000000001
 43
0.0000000001
 40
0.0
 40
0.0
 40
0.0
 40
0.0
 40
1.0
 40
1.0
 40
1.0
 40
1.0
 10
-53.335599999999999
 20
-46.933300000000003
 30
0.0
 10
-53.335599999999999
 20
-46.933300000000003
 30
0.0
 10
-54.493600000000001
 20
-46.933300000000003
 30
0.0
 10
-54.493600000000001
 20
-46.933300000000003
 30
0.0
  0
SPLINE
  5
9F
100
AcDbEntity
  8
LC-001-002-----0
370
    35
100
AcDbSpline
210
0.0
220
0.0
230
1.0
 70
     0
 71
     3
 72
     8
 73
     4
 74
     0
 42
0.0000000001
 43
0.0000000001
 40
0.0
 40
0.0
 40
0.0
 40
0.0
 40
1.0
 40
1.0
 40
1.0
 40
1.0
 10
-54.107600000000005
 20
-47.705300000000001
 30
0.0
 10
-54.107600000000005
 20
-47.705300000000001
 30
0.0
 10
-54.107600000000005
 20
-48.091300000000004
 30
0.0
 10
-54.107600000000005
 20
-48.091300000000004
 30
0.0
  0
SPLINE
  5
A0
100
AcDbEntity
  8
LC-001-002-----0
370
    35
100
AcDbSpline
210
0.0
220
0.0
230
1.0
 70
     0
 71
     3
 72
     8
 73
     4
 74
     0
 42
0.0000000001
 43
0.0000000001
 40
0.0
 40
0.0
 40
0.0
 40
0.0
 40
1.0
 40
1.0
 40
1.0
 40
1.0
 10
-53.721600000000002
 20
-48.091300000000004
 30
0.0
 10
-53.721600000000002
 20
-48.091300000000004
 30
0.0
 10
-53.721600000000002
 20
-47.705300000000001
 30
0.0
 10
-53.721600000000002
 20
-47.705300000000001
 30
0.0
  0
SPLINE
  5
A1
100
AcDbEntity
  8
LC-001-002-----0
370
    35
100
AcDbSpline
210
0.0
220
0.0
230
1.0
 70
     0
 71
     3
 72
     8
 73
     4
 74
     0
 42
0.0000000001
 43
0.0000000001
 40
0.0
 40
0.0
 40
0.0
 40
0.0
 40
1.0
 40
1.0
 40
1.0
 40
1.0
 10
-53.721600000000002
 20
-47.705300000000001
 30
0.0
 10
-53.721600000000002
 20
-47.705300000000001
 30
0.0
 10
-54.107600000000005
 20
-47.705300000000001
 30
0.0
 10
-54.107600000000005
 20
-47.705300000000001
 30
0.0
  0
SPLINE
  5
A2
100
AcDbEntity
  8
LC-001-002-----0
370
    35
100
AcDbSpline
210
0.0
220
0.0
230
1.0
 70
     0
 71
     3
 72
     8
 73
     4
 74
     0
 42
0.0000000001
 43
0.0000000001
 40
0.0
 40
0.0
 40
0.0
 40
0.0
 40
1.0
 40
1.0
 40
1.0
 40
1.0
 10
-58.739700000000006
 20
-16.149900000000002
 30
0.0
 10
-58.739700000000006
 20
-16.149900000000002
 30
0.0
 10
-58.739600000000003
 20
-46.257800000000003
 30
0.0
 10
-58.739600000000003
 20
-46.257800000000003
 30
0.0
  0
SPLINE
  5
A3
100
AcDbEntity
  8
LC-001-002-----0
370
    35
100
AcDbSpline
210
0.0
220
0.0
230
1.0
 70
     0
 71
     3
 72
     8
 73
     4
 74
     0
 42
0.0000000001
 43
0.0000000001
 40
0.0
 40
0.0
 40
0.0
 40
0.0
 40
1.0
 40
1.0
 40
1.0
 40
1.0
 10
-58.739600000000003
 20
-47.415700000000001
 30
0.0
 10
-58.739600000000003
 20
-47.415700000000001
 30
0.0
 10
-58.739600000000003
 20
-46.257800000000003
 30
0.0
 10
-58.739600000000003
 20
-46.257800000000003
 30
0.0
  0
SPLINE
  5
A5
100
AcDbEntity
  8
LC-002-000-----0
370
    35
100
AcDbSpline
210
0.0
220
0.0
230
1.0
 70
     0
 71
     3
 72
    12
 73
     8
 74
     0
 42
0.0000000001
 43
0.0000000001
 40
0.0
 40
0.0
 40
0.0
 40
0.0
 40
0.5
 40
0.5
 40
0.5
 40
0.5
 40
1.0
 40
1.0
 40
1.0
 40
1.0
 10
-8.395900000000001
 20
-4.0452000000000004
 30
0.0
 10
-8.395900000000001
 20
-3.8677000000000001
 30
0.0
 10
-8.5151000000000003
 20
-3.7124000000000001
 30
0.0
 10
-8.6864000000000008
 20
-3.6665000000000001
 30
0.0
 10
-8.6864000000000008
 20
-3.6665000000000001
 30
0.0
 10
-8.857800000000001
 20
-3.6206
 30
0.0
 10
-9.0386000000000006
 20
-3.6955
 30
0.0
 10
-9.1273
 20
-3.8492000000000002
 30
0.0
  0
SPLINE
  5
A6
100
AcDbEntity
  8
LC-002-000-----0
370
    35
100
AcDbSpline
210
0.0
220
0.0
230
1.0
 70
     0
 71
     3
 72
    12
 73
     8
 74
     0
 42
0.0000000001
 43
0.0000000001
 40
0.0
 40
0.0
 40
0.0
 40
0.0
 40
0.5
 40
0.5
 40
0.5
 40
0.5
 40
1.0
 40
1.0
 40
1.0
 40
1.0
 10
-10.8277
 20
-4.0452000000000004
 30
0.0
 10
-10.8277
 20
-3.8677000000000001
 30
0.0
 10
-10.9468
 20
-3.7124000000000001
 30
0.0
 10
-11.1182
 20
-3.6665000000000001
 30
0.0
 10
-11.1182
 20
-3.6665000000000001
 30
0.0
 10
-11.2896
 20
-3.6206
 30
0.0
 10
-11.4704
 20
-3.6955
 30
0.0
 10
-11.559100000000001
 20
-3.8492000000000002
 30
0.0
  0
SPLINE
  5
A7
100
AcDbEntity
  8
LC-002-000-----0
370
    35
100
AcDbSpline
210
0.0
220
0.0
230
1.0
 70
     0
 71
     3
 72
    12
 73
     8
 74
     0
 42
0.0000000001
 43
0.0000000001
 40
0.0
 40
0.0
 40
0.0
 40
0.0
 40
0.5
 40
0.5
 40
0.5
 40
0.5
 40
1.0
 40
1.0
 40
1.0
 40
1.0
 10
-13.259400000000001
 20
-4.0452000000000004
 30
0.0
 10
-13.259400000000001
 20
-3.8677000000000001
 30
0.0
 10
-13.3786
 20
-3.7124000000000001
 30
0.0
 10
-13.550000000000001
 20
-3.6665000000000001
 30
0.0
 10
-13.550000000000001
 20
-3.6665000000000001
 30
0.0
 10
-13.721300000000001
 20
-3.6206
 30
0.0
 10
-13.902200000000001
 20
-3.6955
 30
0.0
 10
-13.9909
 20
-3.8492000000000002
 30
0.0
  0
SPLINE
  5
A8
100
AcDbEntity
  8
LC-002-000-----0
370
    35
100
AcDbSpline
210
0.0
220
0.0
230
1.0
 70
     0
 71
     3
 72
    12
 73
     8
 74
     0
 42
0.0000000001
 43
0.0000000001
 40
0.0
 40
0.0
 40
0.0
 40
0.0
 40
0.5
 40
0.5
 40
0.5
 40
0.5
 40
1.0
 40
1.0
 40
1.0
 40
1.0
 10
-15.6912
 20
-4.0452000000000004
 30
0.0
 10
-15.6912
 20
-3.8677000000000001
 30
0.0
 10
-15.810400000000001
 20
-3.7124000000000001
 30
0.0
 10
-15.981800000000002
 20
-3.6665000000000001
 30
0.0
 10
-15.981800000000002
 20
-3.6665000000000001
 30
0.0
 10
-16.153100000000002
 20
-3.6206
 30
0.0
 10
-16.334099999999999
 20
-3.6955
 30
0.0
 10
-16.422700000000003
 20
-3.8492000000000002
 30
0.0
  0
SPLINE
  5
A9
100
AcDbEntity
  8
LC-002-000-----0
370
    35
100
AcDbSpline
210
0.0
220
0.0
230
1.0
 70
     0
 71
     3
 72
    12
 73
     8
 74
     0
 42
0.0000000001
 43
0.0000000001
 40
0.0
 40
0.0
 40
0.0
 40
0.0
 40
0.5
 40
0.5
 40
0.5
 40
0.5
 40
1.0
 40
1.0
 40
1.0
 40
1.0
 10
-9.1272000000000002
 20
-49.680400000000006
 30
0.0
 10
-9.0385000000000009
 20
-49.834099999999999
 30
0.0
 10
-8.8575999999999997
 20
-49.908900000000003
 30
0.0
 10
-8.686300000000001
 20
-49.863
 30
0.0
 10
-8.686300000000001
 20
-49.863
 30
0.0
 10
-8.514800000000001
 20
-49.817100000000003
 30
0.0
 10
-8.3956999999999997
 20
-49.661799999999999
 30
0.0
 10
-8.3956999999999997
 20
-49.484400000000001
 30
0.0
  0
SPLINE
  5
AA
100
AcDbEntity
  8
LC-002-000-----0
370
    35
100
AcDbSpline
210
0.0
220
0.0
230
1.0
 70
     0
 71
     3
 72
    12
 73
     8
 74
     0
 42
0.0000000001
 43
0.0000000001
 40
0.0
 40
0.0
 40
0.0
 40
0.0
 40
0.5
 40
0.5
 40
0.5
 40
0.5
 40
1.0
 40
1.0
 40
1.0
 40
1.0
 10
-13.9908
 20
-49.680400000000006
 30
0.0
 10
-13.902000000000001
 20
-49.834099999999999
 30
0.0
 10
-13.721200000000001
 20
-49.908900000000003
 30
0.0
 10
-13.549800000000001
 20
-49.863100000000003
 30
0.0
 10
-13.549800000000001
 20
-49.863100000000003
 30
0.0
 10
-13.378500000000001
 20
-49.817100000000003
 30
0.0
 10
-13.259300000000001
 20
-49.661799999999999
 30
0.0
 10
-13.259300000000001
 20
-49.484400000000001
 30
0.0
  0
SPLINE
  5
AB
100
AcDbEntity
  8
LC-002-000-----0
370
    35
100
AcDbSpline
210
0.0
220
0.0
230
1.0
 70
     0
 71
     3
 72
    12
 73
     8
 74
     0
 42
0.0000000001
 43
0.0000000001
 40
0.0
 40
0.0
 40
0.0
 40
0.0
 40
0.5
 40
0.5
 40
0.5
 40
0.5
 40
1.0
 40
1.0
 40
1.0
 40
1.0
 10
-16.422499999999999
 20
-49.680400000000006
 30
0.0
 10
-16.3338
 20
-49.834099999999999
 30
0.0
 10
-16.153000000000002
 20
-49.908900000000003
 30
0.0
 10
-15.9816
 20
-49.863100000000003
 30
0.0
 10
-15.9816
 20
-49.863100000000003
 30
0.0
 10
-15.810300000000002
 20
-49.817100000000003
 30
0.0
 10
-15.6911
 20
-49.661799999999999
 30
0.0
 10
-15.6911
 20
-49.484400000000001
 30
0.0
  0
SPLINE
  5
AC
100
AcDbEntity
  8
LC-002-000-----0
370
    35
100
AcDbSpline
210
0.0
220
0.0
230
1.0
 70
     0
 71
     3
 72
    12
 73
     8
 74
     0
 42
0.0000000001
 43
0.0000000001
 40
0.0
 40
0.0
 40
0.0
 40
0.0
 40
0.5
 40
0.5
 40
0.5
 40
0.5
 40
1.0
 40
1.0
 40
1.0
 40
1.0
 10
-11.558900000000001
 20
-49.680400000000006
 30
0.0
 10
-11.4701
 20
-49.834099999999999
 30
0.0
 10
-11.289300000000001
 20
-49.908900000000003
 30
0.0
 10
-11.117800000000001
 20
-49.863
 30
0.0
 10
-11.117800000000001
 20
-49.863
 30
0.0
 10
-10.9465
 20
-49.817100000000003
 30
0.0
 10
-10.827400000000001
 20
-49.661799999999999
 30
0.0
 10
-10.827400000000001
 20
-49.484400000000001
 30
0.0
  0
SPLINE
  5
AD
100
AcDbEntity
  8
LC-002-000-----0
370
    35
100
AcDbSpline
210
0.0
220
0.0
230
1.0
 70
     0
 71
     3
 72
    12
 73
     8
 74
     0
 42
0.0000000001
 43
0.0000000001
 40
0.0
 40
0.0
 40
0.0
 40
0.0
 40
0.5
 40
0.5
 40
0.5
 40
0.5
 40
1.0
 40
1.0
 40
1.0
 40
1.0
 10
-18.135300000000001
 20
-4.0663999999999998
 30
0.0
 10
-18.135300000000001
 20
-3.8890000000000002
 30
0.0
 10
-18.2545
 20
-3.7337000000000002
 30
0.0
 10
-18.425800000000002
 20
-3.6878000000000002
 30
0.0
 10
-18.425800000000002
 20
-3.6878000000000002
 30
0.0
 10
-18.597200000000001
 20
-3.6419000000000001
 30
0.0
 10
-18.778100000000002
 20
-3.7167000000000003
 30
0.0
 10
-18.866700000000002
 20
-3.8704000000000001
 30
0.0
  0
SPLINE
  5
AE
100
AcDbEntity
  8
LC-002-000-----0
370
    35
100
AcDbSpline
210
0.0
220
0.0
230
1.0
 70
     0
 71
     3
 72
    12
 73
     8
 74
     0
 42
0.0000000001
 43
0.0000000001
 40
0.0
 40
0.0
 40
0.0
 40
0.0
 40
0.5
 40
0.5
 40
0.5
 40
0.5
 40
1.0
 40
1.0
 40
1.0
 40
1.0
 10
-20.5793
 20
-4.0876000000000001
 30
0.0
 10
-20.5793
 20
-3.9103000000000003
 30
0.0
 10
-20.698499999999999
 20
-3.7549000000000001
 30
0.0
 10
-20.869900000000001
 20
-3.7091000000000003
 30
0.0
 10
-20.869900000000001
 20
-3.7091000000000003
 30
0.0
 10
-21.0412
 20
-3.6631
 30
0.0
 10
-21.222200000000001
 20
-3.7381000000000002
 30
0.0
 10
-21.3108
 20
-3.8916000000000004
 30
0.0
  0
SPLINE
  5
AF
100
AcDbEntity
  8
LC-002-000-----0
370
    35
100
AcDbSpline
210
0.0
220
0.0
230
1.0
 70
     0
 71
     3
 72
    12
 73
     8
 74
     0
 42
0.0000000001
 43
0.0000000001
 40
0.0
 40
0.0
 40
0.0
 40
0.0
 40
0.5
 40
0.5
 40
0.5
 40
0.5
 40
1.0
 40
1.0
 40
1.0
 40
1.0
 10
-18.866600000000002
 20
-49.701599999999999
 30
0.0
 10
-18.777900000000002
 20
-49.8553
 30
0.0
 10
-18.597000000000001
 20
-49.930300000000003
 30
0.0
 10
-18.425700000000003
 20
-49.884300000000003
 30
0.0
 10
-18.425700000000003
 20
-49.884300000000003
 30
0.0
 10
-18.254300000000001
 20
-49.8384
 30
0.0
 10
-18.135100000000001
 20
-49.683100000000003
 30
0.0
 10
-18.135100000000001
 20
-49.505600000000001
 30
0.0
  0
SPLINE
  5
B0
100
AcDbEntity
  8
LC-002-000-----0
370
    35
100
AcDbSpline
210
0.0
220
0.0
230
1.0
 70
     0
 71
     3
 72
    12
 73
     8
 74
     0
 42
0.0000000001
 43
0.0000000001
 40
0.0
 40
0.0
 40
0.0
 40
0.0
 40
0.5
 40
0.5
 40
0.5
 40
0.5
 40
1.0
 40
1.0
 40
1.0
 40
1.0
 10
-21.310600000000001
 20
-49.722900000000003
 30
0.0
 10
-21.221900000000002
 20
-49.8765
 30
0.0
 10
-21.0411
 20
-49.951500000000003
 30
0.0
 10
-20.869700000000002
 20
-49.9056
 30
0.0
 10
-20.869700000000002
 20
-49.9056
 30
0.0
 10
-20.698399999999999
 20
-49.8596
 30
0.0
 10
-20.5792
 20
-49.704300000000003
 30
0.0
 10
-20.5792
 20
-49.527000000000001
 30
0.0
  0
SPLINE
  5
B1
100
AcDbEntity
  8
LC-002-000-----0
370
    35
100
AcDbSpline
210
0.0
220
0.0
230
1.0
 70
     0
 71
     3
 72
    12
 73
     8
 74
     0
 42
0.0000000001
 43
0.0000000001
 40
0.0
 40
0.0
 40
0.0
 40
0.0
 40
0.5
 40
0.5
 40
0.5
 40
0.5
 40
1.0
 40
1.0
 40
1.0
 40
1.0
 10
-5.9641999999999999
 20
-4.0452000000000004
 30
0.0
 10
-5.9641999999999999
 20
-3.8677000000000001
 30
0.0
 10
-6.0834000000000001
 20
-3.7124000000000001
 30
0.0
 10
-6.2547000000000006
 20
-3.6665000000000001
 30
0.0
 10
-6.2547000000000006
 20
-3.6665000000000001
 30
0.0
 10
-6.4260999999999999
 20
-3.6205000000000003
 30
0.0
 10
-6.6068000000000007
 20
-3.6955
 30
0.0
 10
-6.6956000000000007
 20
-3.8492000000000002
 30
0.0
  0
SPLINE
  5
B2
100
AcDbEntity
  8
LC-002-000-----0
370
    35
100
AcDbSpline
210
0.0
220
0.0
230
1.0
 70
     0
 71
     3
 72
    12
 73
     8
 74
     0
 42
0.0000000001
 43
0.0000000001
 40
0.0
 40
0.0
 40
0.0
 40
0.0
 40
0.5
 40
0.5
 40
0.5
 40
0.5
 40
1.0
 40
1.0
 40
1.0
 40
1.0
 10
-6.6953000000000005
 20
-49.680400000000006
 30
0.0
 10
-6.6067
 20
-49.834099999999999
 30
0.0
 10
-6.4260000000000002
 20
-49.908900000000003
 30
0.0
 10
-6.2545999999999999
 20
-49.863
 30
0.0
 10
-6.2545999999999999
 20
-49.863
 30
0.0
 10
-6.0831
 20
-49.817100000000003
 30
0.0
 10
-5.9641000000000002
 20
-49.661799999999999
 30
0.0
 10
-5.9641000000000002
 20
-49.484400000000001
 30
0.0
  0
SPLINE
  5
B4
100
AcDbEntity
  8
LC-003-001-----0
370
    35
100
AcDbSpline
210
0.0
220
0.0
230
1.0
 70
     0
 71
     3
 72
     8
 73
     4
 74
     0
 42
0.0000000001
 43
0.0000000001
 40
0.0
 40
0.0
 40
0.0
 40
0.0
 40
1.0
 40
1.0
 40
1.0
 40
1.0
 10
-35.174199999999999
 20
-17.3079
 30
0.0
 10
-35.174199999999999
 20
-17.3079
 30
0.0
 10
-53.335800000000006
 20
-17.308
 30
0.0
 10
-53.335800000000006
 20
-17.308
 30
0.0
  0
SPLINE
  5
B5
100
AcDbEntity
  8
LC-003-001-----0
370
    35
100
AcDbSpline
210
0.0
220
0.0
230
1.0
 70
     0
 71
     3
 72
     8
 73
     4
 74
     0
 42
0.0000000001
 43
0.0000000001
 40
0.0
 40
0.0
 40
0.0
 40
0.0
 40
1.0
 40
1.0
 40
1.0
 40
1.0
 10
-58.739600000000003
 20
-46.257800000000003
 30
0.0
 10
-58.739600000000003
 20
-46.257800000000003
 30
0.0
 10
-56.4236
 20
-46.257800000000003
 30
0.0
 10
-56.4236
 20
-46.257800000000003
 30
0.0
  0
SPLINE
  5
B6
100
AcDbEntity
  8
LC-003-001-----0
370
    35
100
AcDbSpline
210
0.0
220
0.0
230
1.0
 70
     0
 71
     3
 72
     8
 73
     4
 74
     0
 42
0.0000000001
 43
0.0000000001
 40
0.0
 40
0.0
 40
0.0
 40
0.0
 40
1.0
 40
1.0
 40
1.0
 40
1.0
 10
-31.314200000000003
 20
-18.313400000000001
 30
0.0
 10
-31.314200000000003
 20
-18.313400000000001
 30
0.0
 10
-35.174199999999999
 20
-17.348400000000002
 30
0.0
 10
-35.174199999999999
 20
-17.348400000000002
 30
0.0
  0
SPLINE
  5
B7
100
AcDbEntity
  8
LC-003-001-----0
370
    35
100
AcDbSpline
210
0.0
220
0.0
230
1.0
 70
     0
 71
     3
 72
     8
 73
     4
 74
     0
 42
0.0000000001
 43
0.0000000001
 40
0.0
 40
0.0
 40
0.0
 40
0.0
 40
1.0
 40
1.0
 40
1.0
 40
1.0
 10
-31.314200000000003
 20
-45.262
 30
0.0
 10
-31.314200000000003
 20
-45.262
 30
0.0
 10
-35.174199999999999
 20
-46.227000000000004
 30
0.0
 10
-35.174199999999999
 20
-46.227000000000004
 30
0.0
  0
SPLINE
  5
B8
100
AcDbEntity
  8
LC-003-001-----0
370
    35
100
AcDbSpline
210
0.0
220
0.0
230
1.0
 70
     0
 71
     3
 72
     8
 73
     4
 74
     0
 42
0.0000000001
 43
0.0000000001
 40
0.0
 40
0.0
 40
0.0
 40
0.0
 40
1.0
 40
1.0
 40
1.0
 40
1.0
 10
-56.4238
 20
-17.308
 30
0.0
 10
-56.4238
 20
-17.308
 30
0.0
 10
-58.739700000000006
 20
-17.308
 30
0.0
 10
-58.739700000000006
 20
-17.308
 30
0.0
  0
SPLINE
  5
B9
100
AcDbEntity
  8
LC-003-001-----0
370
    35
100
AcDbSpline
210
0.0
220
0.0
230
1.0
 70
     0
 71
     3
 72
     8
 73
     4
 74
     0
 42
0.0000000001
 43
0.0000000001
 40
0.0
 40
0.0
 40
0.0
 40
0.0
 40
1.0
 40
1.0
 40
1.0
 40
1.0
 10
-53.335599999999999
 20
-46.257800000000003
 30
0.0
 10
-53.335599999999999
 20
-46.257800000000003
 30
0.0
 10
-35.174199999999999
 20
-46.2577
 30
0.0
 10
-35.174199999999999
 20
-46.2577
 30
0.0
  0
SPLINE
  5
BA
100
AcDbEntity
  8
LC-003-001-----0
370
    35
100
AcDbSpline
210
0.0
220
0.0
230
1.0
 70
     0
 71
     3
 72
     8
 73
     4
 74
     0
 42
0.0000000001
 43
0.0000000001
 40
0.0
 40
0.0
 40
0.0
 40
0.0
 40
1.0
 40
1.0
 40
1.0
 40
1.0
 10
-31.314200000000003
 20
-45.292700000000004
 30
0.0
 10
-31.314200000000003
 20
-45.292700000000004
 30
0.0
 10
-25.1706
 20
-45.292700000000004
 30
0.0
 10
-25.1706
 20
-45.292700000000004
 30
0.0
  0
SPLINE
  5
BB
100
AcDbEntity
  8
LC-003-001-----0
370
    35
100
AcDbSpline
210
0.0
220
0.0
230
1.0
 70
     0
 71
     3
 72
     8
 73
     4
 74
     0
 42
0.0000000001
 43
0.0000000001
 40
0.0
 40
0.0
 40
0.0
 40
0.0
 40
1.0
 40
1.0
 40
1.0
 40
1.0
 10
-53.335599999999999
 20
-48.091300000000004
 30
0.0
 10
-53.335599999999999
 20
-48.091300000000004
 30
0.0
 10
-53.335800000000006
 20
-15.474500000000001
 30
0.0
 10
-53.335800000000006
 20
-15.474500000000001
 30
0.0
  0
SPLINE
  5
BD
100
AcDbEntity
  8
LC-004-005-----0
370
    35
100
AcDbSpline
210
0.0
220
0.0
230
1.0
 70
     0
 71
     3
 72
     8
 73
     4
 74
     0
 42
0.0000000001
 43
0.0000000001
 40
0.0
 40
0.0
 40
0.0
 40
0.0
 40
1.0
 40
1.0
 40
1.0
 40
1.0
 10
-15.5669
 20
-13.044400000000001
 30
0.0
 10
-15.5669
 20
-13.044400000000001
 30
0.0
 10
-15.6912
 20
-13.168700000000001
 30
0.0
 10
-15.6912
 20
-13.168700000000001
 30
0.0
  0
SPLINE
  5
BE
100
AcDbEntity
  8
LC-004-005-----0
370
    20
100
AcDbSpline
210
0.0
220
0.0
230
1.0
 70
     0
 71
     3
 72
     8
 73
     4
 74
     0
 42
0.0000000001
 43
0.0000000001
 40
0.0
 40
0.0
 40
0.0
 40
0.0
 40
1.0
 40
1.0
 40
1.0
 40
1.0
 10
-5.9641999999999999
 20
-5.8656000000000006
 30
0.0
 10
-5.9641999999999999
 20
-5.8656000000000006
 30
0.0
 10
-4.9912000000000001
 20
-4.8925999999999998
 30
0.0
 10
-4.9912000000000001
 20
-4.8925999999999998
 30
0.0
  0
SPLINE
  5
BF
100
AcDbEntity
  8
LC-004-005-----0
370
    20
100
AcDbSpline
210
0.0
220
0.0
230
1.0
 70
     0
 71
     3
 72
     8
 73
     4
 74
     0
 42
0.0000000001
 43
0.0000000001
 40
0.0
 40
0.0
 40
0.0
 40
0.0
 40
1.0
 40
1.0
 40
1.0
 40
1.0
 10
-5.9641999999999999
 20
-4.7739000000000003
 30
0.0
 10
-5.9641999999999999
 20
-4.7739000000000003
 30
0.0
 10
-3.8471000000000002
 20
-2.6568000000000001
 30
0.0
 10
-3.8471000000000002
 20
-2.6568000000000001
 30
0.0
  0
SPLINE
  5
C0
100
AcDbEntity
  8
LC-004-005-----0
370
    20
100
AcDbSpline
210
0.0
220
0.0
230
1.0
 70
     0
 71
     3
 72
     8
 73
     4
 74
     0
 42
0.0000000001
 43
0.0000000001
 40
0.0
 40
0.0
 40
0.0
 40
0.0
 40
1.0
 40
1.0
 40
1.0
 40
1.0
 10
-8.395900000000001
 20
-6.1139999999999999
 30
0.0
 10
-8.395900000000001
 20
-6.1139999999999999
 30
0.0
 10
-7.4664999999999999
 20
-5.1846000000000005
 30
0.0
 10
-7.4664999999999999
 20
-5.1846000000000005
 30
0.0
  0
SPLINE
  5
C1
100
AcDbEntity
  8
LC-004-005-----0
370
    20
100
AcDbSpline
210
0.0
220
0.0
230
1.0
 70
     0
 71
     3
 72
     8
 73
     4
 74
     0
 42
0.0000000001
 43
0.0000000001
 40
0.0
 40
0.0
 40
0.0
 40
0.0
 40
1.0
 40
1.0
 40
1.0
 40
1.0
 10
-6.0649000000000006
 20
-3.7828000000000004
 30
0.0
 10
-6.0649000000000006
 20
-3.7828000000000004
 30
0.0
 10
-3.9830000000000001
 20
-1.7009000000000001
 30
0.0
 10
-3.9830000000000001
 20
-1.7009000000000001
 30
0.0
  0
SPLINE
  5
C2
100
AcDbEntity
  8
LC-004-005-----0
370
    20
100
AcDbSpline
210
0.0
220
0.0
230
1.0
 70
     0
 71
     3
 72
     8
 73
     4
 74
     0
 42
0.0000000001
 43
0.0000000001
 40
0.0
 40
0.0
 40
0.0
 40
0.0
 40
1.0
 40
1.0
 40
1.0
 40
1.0
 10
-8.395900000000001
 20
-5.0221
 30
0.0
 10
-8.395900000000001
 20
-5.0221
 30
0.0
 10
-5.8111000000000006
 20
-2.4372000000000003
 30
0.0
 10
-5.8111000000000006
 20
-2.4372000000000003
 30
0.0
  0
SPLINE
  5
C3
100
AcDbEntity
  8
LC-004-005-----0
370
    20
100
AcDbSpline
210
0.0
220
0.0
230
1.0
 70
     0
 71
     3
 72
     8
 73
     4
 74
     0
 42
0.0000000001
 43
0.0000000001
 40
0.0
 40
0.0
 40
0.0
 40
0.0
 40
1.0
 40
1.0
 40
1.0
 40
1.0
 10
-5.3559000000000001
 20
-1.9821000000000002
 30
0.0
 10
-5.3559000000000001
 20
-1.9821000000000002
 30
0.0
 10
-4.6364000000000001
 20
-1.2625
 30
0.0
 10
-4.6364000000000001
 20
-1.2625
 30
0.0
  0
SPLINE
  5
C4
100
AcDbEntity
  8
LC-004-005-----0
370
    20
100
AcDbSpline
210
0.0
220
0.0
230
1.0
 70
     0
 71
     3
 72
     8
 73
     4
 74
     0
 42
0.0000000001
 43
0.0000000001
 40
0.0
 40
0.0
 40
0.0
 40
0.0
 40
1.0
 40
1.0
 40
1.0
 40
1.0
 10
-10.8277
 20
-6.3622000000000005
 30
0.0
 10
-10.8277
 20
-6.3622000000000005
 30
0.0
 10
-10.237500000000001
 20
-5.7720000000000002
 30
0.0
 10
-10.237500000000001
 20
-5.7720000000000002
 30
0.0
  0
SPLINE
  5
C5
100
AcDbEntity
  8
LC-004-005-----0
370
    20
100
AcDbSpline
210
0.0
220
0.0
230
1.0
 70
     0
 71
     3
 72
     8
 73
     4
 74
     0
 42
0.0000000001
 43
0.0000000001
 40
0.0
 40
0.0
 40
0.0
 40
0.0
 40
1.0
 40
1.0
 40
1.0
 40
1.0
 10
-8.4092000000000002
 20
-3.9437000000000002
 30
0.0
 10
-8.4092000000000002
 20
-3.9437000000000002
 30
0.0
 10
-6.9027000000000003
 20
-2.4372000000000003
 30
0.0
 10
-6.9027000000000003
 20
-2.4372000000000003
 30
0.0
  0
SPLINE
  5
C6
100
AcDbEntity
  8
LC-004-005-----0
370
    20
100
AcDbSpline
210
0.0
220
0.0
230
1.0
 70
     0
 71
     3
 72
     8
 73
     4
 74
     0
 42
0.0000000001
 43
0.0000000001
 40
0.0
 40
0.0
 40
0.0
 40
0.0
 40
1.0
 40
1.0
 40
1.0
 40
1.0
 10
-10.8277
 20
-5.2704000000000004
 30
0.0
 10
-10.8277
 20
-5.2704000000000004
 30
0.0
 10
-7.9945000000000004
 20
-2.4372000000000003
 30
0.0
 10
-7.9945000000000004
 20
-2.4372000000000003
 30
0.0
  0
SPLINE
  5
C7
100
AcDbEntity
  8
LC-004-005-----0
370
    20
100
AcDbSpline
210
0.0
220
0.0
230
1.0
 70
     0
 71
     3
 72
     8
 73
     4
 74
     0
 42
0.0000000001
 43
0.0000000001
 40
0.0
 40
0.0
 40
0.0
 40
0.0
 40
1.0
 40
1.0
 40
1.0
 40
1.0
 10
-13.259400000000001
 20
-6.6105
 30
0.0
 10
-13.259400000000001
 20
-6.6105
 30
0.0
 10
-13.0084
 20
-6.3593000000000002
 30
0.0
 10
-13.0084
 20
-6.3593000000000002
 30
0.0
  0
SPLINE
  5
C8
100
AcDbEntity
  8
LC-004-005-----0
370
    20
100
AcDbSpline
210
0.0
220
0.0
230
1.0
 70
     0
 71
     3
 72
     8
 73
     4
 74
     0
 42
0.0000000001
 43
0.0000000001
 40
0.0
 40
0.0
 40
0.0
 40
0.0
 40
1.0
 40
1.0
 40
1.0
 40
1.0
 10
-10.8277
 20
-4.1786000000000003
 30
0.0
 10
-10.8277
 20
-4.1786000000000003
 30
0.0
 10
-9.0862999999999996
 20
-2.4372000000000003
 30
0.0
 10
-9.0862999999999996
 20
-2.4372000000000003
 30
0.0
  0
SPLINE
  5
C9
100
AcDbEntity
  8
LC-004-005-----0
370
    20
100
AcDbSpline
210
0.0
220
0.0
230
1.0
 70
     0
 71
     3
 72
     8
 73
     4
 74
     0
 42
0.0000000001
 43
0.0000000001
 40
0.0
 40
0.0
 40
0.0
 40
0.0
 40
1.0
 40
1.0
 40
1.0
 40
1.0
 10
-13.259400000000001
 20
-5.5186000000000002
 30
0.0
 10
-13.259400000000001
 20
-5.5186000000000002
 30
0.0
 10
-10.178000000000001
 20
-2.4372000000000003
 30
0.0
 10
-10.178000000000001
 20
-2.4372000000000003
 30
0.0
  0
SPLINE
  5
CA
100
AcDbEntity
  8
LC-004-005-----0
370
    20
100
AcDbSpline
210
0.0
220
0.0
230
1.0
 70
     0
 71
     3
 72
     8
 73
     4
 74
     0
 42
0.0000000001
 43
0.0000000001
 40
0.0
 40
0.0
 40
0.0
 40
0.0
 40
1.0
 40
1.0
 40
1.0
 40
1.0
 10
-13.259400000000001
 20
-4.4268999999999998
 30
0.0
 10
-13.259400000000001
 20
-4.4268999999999998
 30
0.0
 10
-11.2699
 20
-2.4372000000000003
 30
0.0
 10
-11.2699
 20
-2.4372000000000003
 30
0.0
  0
SPLINE
  5
CB
100
AcDbEntity
  8
LC-004-005-----0
370
    20
100
AcDbSpline
210
0.0
220
0.0
230
1.0
 70
     0
 71
     3
 72
     8
 73
     4
 74
     0
 42
0.0000000001
 43
0.0000000001
 40
0.0
 40
0.0
 40
0.0
 40
0.0
 40
1.0
 40
1.0
 40
1.0
 40
1.0
 10
-15.6912
 20
-5.7670000000000003
 30
0.0
 10
-15.6912
 20
-5.7670000000000003
 30
0.0
 10
-14.2879
 20
-4.3635000000000002
 30
0.0
 10
-14.2879
 20
-4.3635000000000002
 30
0.0
  0
SPLINE
  5
CC
100
AcDbEntity
  8
LC-004-005-----0
370
    20
100
AcDbSpline
210
0.0
220
0.0
230
1.0
 70
     0
 71
     3
 72
     8
 73
     4
 74
     0
 42
0.0000000001
 43
0.0000000001
 40
0.0
 40
0.0
 40
0.0
 40
0.0
 40
1.0
 40
1.0
 40
1.0
 40
1.0
 10
-13.583400000000001
 20
-3.6591
 30
0.0
 10
-13.583400000000001
 20
-3.6591
 30
0.0
 10
-12.361600000000001
 20
-2.4372000000000003
 30
0.0
 10
-12.361600000000001
 20
-2.4372000000000003
 30
0.0
  0
SPLINE
  5
CD
100
AcDbEntity
  8
LC-004-005-----0
370
    20
100
AcDbSpline
210
0.0
220
0.0
230
1.0
 70
     0
 71
     3
 72
     8
 73
     4
 74
     0
 42
0.0000000001
 43
0.0000000001
 40
0.0
 40
0.0
 40
0.0
 40
0.0
 40
1.0
 40
1.0
 40
1.0
 40
1.0
 10
-15.6912
 20
-4.6751000000000005
 30
0.0
 10
-15.6912
 20
-4.6751000000000005
 30
0.0
 10
-13.4533
 20
-2.4372000000000003
 30
0.0
 10
-13.4533
 20
-2.4372000000000003
 30
0.0
  0
SPLINE
  5
CE
100
AcDbEntity
  8
LC-004-005-----0
370
    20
100
AcDbSpline
210
0.0
220
0.0
230
1.0
 70
     0
 71
     3
 72
     8
 73
     4
 74
     0
 42
0.0000000001
 43
0.0000000001
 40
0.0
 40
0.0
 40
0.0
 40
0.0
 40
1.0
 40
1.0
 40
1.0
 40
1.0
 10
-18.135300000000001
 20
-6.0274000000000001
 30
0.0
 10
-18.135300000000001
 20
-6.0274000000000001
 30
0.0
 10
-17.058800000000002
 20
-4.9508999999999999
 30
0.0
 10
-17.058800000000002
 20
-4.9508999999999999
 30
0.0
  0
SPLINE
  5
CF
100
AcDbEntity
  8
LC-004-005-----0
370
    20
100
AcDbSpline
210
0.0
220
0.0
230
1.0
 70
     0
 71
     3
 72
     8
 73
     4
 74
     0
 42
0.0000000001
 43
0.0000000001
 40
0.0
 40
0.0
 40
0.0
 40
0.0
 40
1.0
 40
1.0
 40
1.0
 40
1.0
 10
-15.843100000000002
 20
-3.7353000000000001
 30
0.0
 10
-15.843100000000002
 20
-3.7353000000000001
 30
0.0
 10
-14.545200000000001
 20
-2.4372000000000003
 30
0.0
 10
-14.545200000000001
 20
-2.4372000000000003
 30
0.0
  0
SPLINE
  5
D0
100
AcDbEntity
  8
LC-004-005-----0
370
    20
100
AcDbSpline
210
0.0
220
0.0
230
1.0
 70
     0
 71
     3
 72
     8
 73
     4
 74
     0
 42
0.0000000001
 43
0.0000000001
 40
0.0
 40
0.0
 40
0.0
 40
0.0
 40
1.0
 40
1.0
 40
1.0
 40
1.0
 10
-18.135300000000001
 20
-4.9357000000000006
 30
0.0
 10
-18.135300000000001
 20
-4.9357000000000006
 30
0.0
 10
-15.636900000000001
 20
-2.4372000000000003
 30
0.0
 10
-15.636900000000001
 20
-2.4372000000000003
 30
0.0
  0
SPLINE
  5
D1
100
AcDbEntity
  8
LC-004-005-----0
370
    20
100
AcDbSpline
210
0.0
220
0.0
230
1.0
 70
     0
 71
     3
 72
     8
 73
     4
 74
     0
 42
0.0000000001
 43
0.0000000001
 40
0.0
 40
0.0
 40
0.0
 40
0.0
 40
1.0
 40
1.0
 40
1.0
 40
1.0
 10
-20.5793
 20
-6.2879000000000005
 30
0.0
 10
-20.5793
 20
-6.2879000000000005
 30
0.0
 10
-19.829599999999999
 20
-5.5382000000000007
 30
0.0
 10
-19.829599999999999
 20
-5.5382000000000007
 30
0.0
  0
SPLINE
  5
D2
100
AcDbEntity
  8
LC-004-005-----0
370
    20
100
AcDbSpline
210
0.0
220
0.0
230
1.0
 70
     0
 71
     3
 72
     8
 73
     4
 74
     0
 42
0.0000000001
 43
0.0000000001
 40
0.0
 40
0.0
 40
0.0
 40
0.0
 40
1.0
 40
1.0
 40
1.0
 40
1.0
 10
-18.178599999999999
 20
-3.8872
 30
0.0
 10
-18.178599999999999
 20
-3.8872
 30
0.0
 10
-16.7288
 20
-2.4372000000000003
 30
0.0
 10
-16.7288
 20
-2.4372000000000003
 30
0.0
  0
SPLINE
  5
D3
100
AcDbEntity
  8
LC-004-005-----0
370
    20
100
AcDbSpline
210
0.0
220
0.0
230
1.0
 70
     0
 71
     3
 72
     8
 73
     4
 74
     0
 42
0.0000000001
 43
0.0000000001
 40
0.0
 40
0.0
 40
0.0
 40
0.0
 40
1.0
 40
1.0
 40
1.0
 40
1.0
 10
-20.5793
 20
-5.1962000000000002
 30
0.0
 10
-20.5793
 20
-5.1962000000000002
 30
0.0
 10
-17.820499999999999
 20
-2.4373
 30
0.0
 10
-17.820499999999999
 20
-2.4373
 30
0.0
  0
SPLINE
  5
D4
100
AcDbEntity
  8
LC-004-005-----0
370
    20
100
AcDbSpline
210
0.0
220
0.0
230
1.0
 70
     0
 71
     3
 72
     8
 73
     4
 74
     0
 42
0.0000000001
 43
0.0000000001
 40
0.0
 40
0.0
 40
0.0
 40
0.0
 40
1.0
 40
1.0
 40
1.0
 40
1.0
 10
-23.023500000000002
 20
-6.5485000000000007
 30
0.0
 10
-23.023500000000002
 20
-6.5485000000000007
 30
0.0
 10
-22.6006
 20
-6.1256000000000004
 30
0.0
 10
-22.6006
 20
-6.1256000000000004
 30
0.0
  0
SPLINE
  5
D5
100
AcDbEntity
  8
LC-004-005-----0
370
    20
100
AcDbSpline
210
0.0
220
0.0
230
1.0
 70
     0
 71
     3
 72
     8
 73
     4
 74
     0
 42
0.0000000001
 43
0.0000000001
 40
0.0
 40
0.0
 40
0.0
 40
0.0
 40
1.0
 40
1.0
 40
1.0
 40
1.0
 10
-20.5793
 20
-4.1044
 30
0.0
 10
-20.5793
 20
-4.1044
 30
0.0
 10
-18.912200000000002
 20
-2.4373
 30
0.0
 10
-18.912200000000002
 20
-2.4373
 30
0.0
  0
SPLINE
  5
D6
100
AcDbEntity
  8
LC-004-005-----0
370
    20
100
AcDbSpline
210
0.0
220
0.0
230
1.0
 70
     0
 71
     3
 72
     8
 73
     4
 74
     0
 42
0.0000000001
 43
0.0000000001
 40
0.0
 40
0.0
 40
0.0
 40
0.0
 40
1.0
 40
1.0
 40
1.0
 40
1.0
 10
-23.023500000000002
 20
-5.4567000000000005
 30
0.0
 10
-23.023500000000002
 20
-5.4567000000000005
 30
0.0
 10
-20.004100000000001
 20
-2.4373
 30
0.0
 10
-20.004100000000001
 20
-2.4373
 30
0.0
  0
SPLINE
  5
D7
100
AcDbEntity
  8
LC-004-005-----0
370
    20
100
AcDbSpline
210
0.0
220
0.0
230
1.0
 70
     0
 71
     3
 72
     8
 73
     4
 74
     0
 42
0.0000000001
 43
0.0000000001
 40
0.0
 40
0.0
 40
0.0
 40
0.0
 40
1.0
 40
1.0
 40
1.0
 40
1.0
 10
-23.023500000000002
 20
-4.3649000000000004
 30
0.0
 10
-23.023500000000002
 20
-4.3649000000000004
 30
0.0
 10
-21.095800000000001
 20
-2.4373
 30
0.0
 10
-21.095800000000001
 20
-2.4373
 30
0.0
  0
SPLINE
  5
D8
100
AcDbEntity
  8
LC-004-005-----0
370
    20
100
AcDbSpline
210
0.0
220
0.0
230
1.0
 70
     0
 71
     3
 72
     8
 73
     4
 74
     0
 42
0.0000000001
 43
0.0000000001
 40
0.0
 40
0.0
 40
0.0
 40
0.0
 40
1.0
 40
1.0
 40
1.0
 40
1.0
 10
-24.041800000000002
 20
-4.2915999999999999
 30
0.0
 10
-24.041800000000002
 20
-4.2915999999999999
 30
0.0
 10
-23.773500000000002
 20
-4.0234000000000005
 30
0.0
 10
-23.773500000000002
 20
-4.0234000000000005
 30
0.0
  0
SPLINE
  5
D9
100
AcDbEntity
  8
LC-004-005-----0
370
    20
100
AcDbSpline
210
0.0
220
0.0
230
1.0
 70
     0
 71
     3
 72
     8
 73
     4
 74
     0
 42
0.0000000001
 43
0.0000000001
 40
0.0
 40
0.0
 40
0.0
 40
0.0
 40
1.0
 40
1.0
 40
1.0
 40
1.0
 10
-23.446000000000002
 20
-3.6957
 30
0.0
 10
-23.446000000000002
 20
-3.6957
 30
0.0
 10
-22.1875
 20
-2.4373
 30
0.0
 10
-22.1875
 20
-2.4373
 30
0.0
  0
SPLINE
  5
DA
100
AcDbEntity
  8
LC-004-005-----0
370
    20
100
AcDbSpline
210
0.0
220
0.0
230
1.0
 70
     0
 71
     3
 72
     8
 73
     4
 74
     0
 42
0.0000000001
 43
0.0000000001
 40
0.0
 40
0.0
 40
0.0
 40
0.0
 40
1.0
 40
1.0
 40
1.0
 40
1.0
 10
-24.977700000000002
 20
-4.1356000000000002
 30
0.0
 10
-24.977700000000002
 20
-4.1356000000000002
 30
0.0
 10
-23.279400000000003
 20
-2.4373
 30
0.0
 10
-23.279400000000003
 20
-2.4373
 30
0.0
  0
SPLINE
  5
DB
100
AcDbEntity
  8
LC-004-005-----0
370
    20
100
AcDbSpline
210
0.0
220
0.0
230
1.0
 70
     0
 71
     3
 72
     8
 73
     4
 74
     0
 42
0.0000000001
 43
0.0000000001
 40
0.0
 40
0.0
 40
0.0
 40
0.0
 40
1.0
 40
1.0
 40
1.0
 40
1.0
 10
-24.9542
 20
-3.0204
 30
0.0
 10
-24.9542
 20
-3.0204
 30
0.0
 10
-24.394500000000001
 20
-2.4608000000000003
 30
0.0
 10
-24.394500000000001
 20
-2.4608000000000003
 30
0.0
  0
SPLINE
  5
DC
100
AcDbEntity
  8
LC-004-005-----0
370
    20
100
AcDbSpline
210
0.0
220
0.0
230
1.0
 70
     0
 71
     3
 72
     8
 73
     4
 74
     0
 42
0.0000000001
 43
0.0000000001
 40
0.0
 40
0.0
 40
0.0
 40
0.0
 40
1.0
 40
1.0
 40
1.0
 40
1.0
 10
-5.3561000000000005
 20
-52.203400000000002
 30
0.0
 10
-5.3561000000000005
 20
-52.203400000000002
 30
0.0
 10
-3.9073000000000002
 20
-50.7547
 30
0.0
 10
-3.9073000000000002
 20
-50.7547
 30
0.0
  0
SPLINE
  5
DD
100
AcDbEntity
  8
LC-004-005-----0
370
    20
100
AcDbSpline
210
0.0
220
0.0
230
1.0
 70
     0
 71
     3
 72
     8
 73
     4
 74
     0
 42
0.0000000001
 43
0.0000000001
 40
0.0
 40
0.0
 40
0.0
 40
0.0
 40
1.0
 40
1.0
 40
1.0
 40
1.0
 10
-5.3561000000000005
 20
-51.111699999999999
 30
0.0
 10
-5.3561000000000005
 20
-51.111699999999999
 30
0.0
 10
-4.2769000000000004
 20
-50.032499999999999
 30
0.0
 10
-4.2769000000000004
 20
-50.032499999999999
 30
0.0
  0
SPLINE
  5
DE
100
AcDbEntity
  8
LC-004-005-----0
370
    20
100
AcDbSpline
210
0.0
220
0.0
230
1.0
 70
     0
 71
     3
 72
     8
 73
     4
 74
     0
 42
0.0000000001
 43
0.0000000001
 40
0.0
 40
0.0
 40
0.0
 40
0.0
 40
1.0
 40
1.0
 40
1.0
 40
1.0
 10
-6.4283999999999999
 20
-51.092200000000005
 30
0.0
 10
-6.4283999999999999
 20
-51.092200000000005
 30
0.0
 10
-4.6465000000000005
 20
-49.310300000000005
 30
0.0
 10
-4.6465000000000005
 20
-49.310300000000005
 30
0.0
  0
SPLINE
  5
DF
100
AcDbEntity
  8
LC-004-005-----0
370
    20
100
AcDbSpline
210
0.0
220
0.0
230
1.0
 70
     0
 71
     3
 72
     8
 73
     4
 74
     0
 42
0.0000000001
 43
0.0000000001
 40
0.0
 40
0.0
 40
0.0
 40
0.0
 40
1.0
 40
1.0
 40
1.0
 40
1.0
 10
-7.5200000000000005
 20
-51.092200000000005
 30
0.0
 10
-7.5200000000000005
 20
-51.092200000000005
 30
0.0
 10
-6.3003
 20
-49.872399999999999
 30
0.0
 10
-6.3003
 20
-49.872399999999999
 30
0.0
  0
SPLINE
  5
E0
100
AcDbEntity
  8
LC-004-005-----0
370
    20
100
AcDbSpline
210
0.0
220
0.0
230
1.0
 70
     0
 71
     3
 72
     8
 73
     4
 74
     0
 42
0.0000000001
 43
0.0000000001
 40
0.0
 40
0.0
 40
0.0
 40
0.0
 40
1.0
 40
1.0
 40
1.0
 40
1.0
 10
-5.968
 20
-49.540100000000002
 30
0.0
 10
-5.968
 20
-49.540100000000002
 30
0.0
 10
-5.016
 20
-48.588100000000004
 30
0.0
 10
-5.016
 20
-48.588100000000004
 30
0.0
  0
SPLINE
  5
E1
100
AcDbEntity
  8
LC-004-005-----0
370
    20
100
AcDbSpline
210
0.0
220
0.0
230
1.0
 70
     0
 71
     3
 72
     8
 73
     4
 74
     0
 42
0.0000000001
 43
0.0000000001
 40
0.0
 40
0.0
 40
0.0
 40
0.0
 40
1.0
 40
1.0
 40
1.0
 40
1.0
 10
-8.6118000000000006
 20
-51.092200000000005
 30
0.0
 10
-8.6118000000000006
 20
-51.092200000000005
 30
0.0
 10
-6.8801000000000005
 20
-49.360600000000005
 30
0.0
 10
-6.8801000000000005
 20
-49.360600000000005
 30
0.0
  0
SPLINE
  5
E2
100
AcDbEntity
  8
LC-004-005-----0
370
    20
100
AcDbSpline
210
0.0
220
0.0
230
1.0
 70
     0
 71
     3
 72
     8
 73
     4
 74
     0
 42
0.0000000001
 43
0.0000000001
 40
0.0
 40
0.0
 40
0.0
 40
0.0
 40
1.0
 40
1.0
 40
1.0
 40
1.0
 10
-5.9641000000000002
 20
-48.444400000000002
 30
0.0
 10
-5.9641000000000002
 20
-48.444400000000002
 30
0.0
 10
-5.3855000000000004
 20
-47.865900000000003
 30
0.0
 10
-5.3855000000000004
 20
-47.865900000000003
 30
0.0
  0
SPLINE
  5
E3
100
AcDbEntity
  8
LC-004-005-----0
370
    20
100
AcDbSpline
210
0.0
220
0.0
230
1.0
 70
     0
 71
     3
 72
     8
 73
     4
 74
     0
 42
0.0000000001
 43
0.0000000001
 40
0.0
 40
0.0
 40
0.0
 40
0.0
 40
1.0
 40
1.0
 40
1.0
 40
1.0
 10
-9.7035999999999998
 20
-51.092300000000002
 30
0.0
 10
-9.7035999999999998
 20
-51.092300000000002
 30
0.0
 10
-7.2797000000000001
 20
-48.668400000000005
 30
0.0
 10
-7.2797000000000001
 20
-48.668400000000005
 30
0.0
  0
SPLINE
  5
E4
100
AcDbEntity
  8
LC-004-005-----0
370
    20
100
AcDbSpline
210
0.0
220
0.0
230
1.0
 70
     0
 71
     3
 72
     8
 73
     4
 74
     0
 42
0.0000000001
 43
0.0000000001
 40
0.0
 40
0.0
 40
0.0
 40
0.0
 40
1.0
 40
1.0
 40
1.0
 40
1.0
 10
-5.9641000000000002
 20
-47.352600000000002
 30
0.0
 10
-5.9641000000000002
 20
-47.352600000000002
 30
0.0
 10
-5.7551000000000005
 20
-47.143700000000003
 30
0.0
 10
-5.7551000000000005
 20
-47.143700000000003
 30
0.0
  0
SPLINE
  5
E5
100
AcDbEntity
  8
LC-004-005-----0
370
    20
100
AcDbSpline
210
0.0
220
0.0
230
1.0
 70
     0
 71
     3
 72
     8
 73
     4
 74
     0
 42
0.0000000001
 43
0.0000000001
 40
0.0
 40
0.0
 40
0.0
 40
0.0
 40
1.0
 40
1.0
 40
1.0
 40
1.0
 10
-10.795300000000001
 20
-51.092300000000002
 30
0.0
 10
-10.795300000000001
 20
-51.092300000000002
 30
0.0
 10
-9.2209000000000003
 20
-49.517900000000004
 30
0.0
 10
-9.2209000000000003
 20
-49.517900000000004
 30
0.0
  0
SPLINE
  5
E6
100
AcDbEntity
  8
LC-004-005-----0
370
    20
100
AcDbSpline
210
0.0
220
0.0
230
1.0
 70
     0
 71
     3
 72
     8
 73
     4
 74
     0
 42
0.0000000001
 43
0.0000000001
 40
0.0
 40
0.0
 40
0.0
 40
0.0
 40
1.0
 40
1.0
 40
1.0
 40
1.0
 10
-8.3956999999999997
 20
-48.692700000000002
 30
0.0
 10
-8.3956999999999997
 20
-48.692700000000002
 30
0.0
 10
-7.6792000000000007
 20
-47.976300000000002
 30
0.0
 10
-7.6792000000000007
 20
-47.976300000000002
 30
0.0
  0
SPLINE
  5
E7
100
AcDbEntity
  8
LC-004-005-----0
370
    20
100
AcDbSpline
210
0.0
220
0.0
230
1.0
 70
     0
 71
     3
 72
     8
 73
     4
 74
     0
 42
0.0000000001
 43
0.0000000001
 40
0.0
 40
0.0
 40
0.0
 40
0.0
 40
1.0
 40
1.0
 40
1.0
 40
1.0
 10
-11.8872
 20
-51.092300000000002
 30
0.0
 10
-11.8872
 20
-51.092300000000002
 30
0.0
 10
-9.6205999999999996
 20
-48.825800000000001
 30
0.0
 10
-9.6205999999999996
 20
-48.825800000000001
 30
0.0
  0
SPLINE
  5
E8
100
AcDbEntity
  8
LC-004-005-----0
370
    20
100
AcDbSpline
210
0.0
220
0.0
230
1.0
 70
     0
 71
     3
 72
     8
 73
     4
 74
     0
 42
0.0000000001
 43
0.0000000001
 40
0.0
 40
0.0
 40
0.0
 40
0.0
 40
1.0
 40
1.0
 40
1.0
 40
1.0
 10
-8.3956999999999997
 20
-47.6008
 30
0.0
 10
-8.3956999999999997
 20
-47.6008
 30
0.0
 10
-8.0789000000000009
 20
-47.284100000000002
 30
0.0
 10
-8.0789000000000009
 20
-47.284100000000002
 30
0.0
  0
SPLINE
  5
E9
100
AcDbEntity
  8
LC-004-005-----0
370
    20
100
AcDbSpline
210
0.0
220
0.0
230
1.0
 70
     0
 71
     3
 72
     8
 73
     4
 74
     0
 42
0.0000000001
 43
0.0000000001
 40
0.0
 40
0.0
 40
0.0
 40
0.0
 40
1.0
 40
1.0
 40
1.0
 40
1.0
 10
-12.978900000000001
 20
-51.092300000000002
 30
0.0
 10
-12.978900000000001
 20
-51.092300000000002
 30
0.0
 10
-11.5618
 20
-49.675200000000004
 30
0.0
 10
-11.5618
 20
-49.675200000000004
 30
0.0
  0
SPLINE
  5
EA
100
AcDbEntity
  8
LC-004-005-----0
370
    20
100
AcDbSpline
210
0.0
220
0.0
230
1.0
 70
     0
 71
     3
 72
     8
 73
     4
 74
     0
 42
0.0000000001
 43
0.0000000001
 40
0.0
 40
0.0
 40
0.0
 40
0.0
 40
1.0
 40
1.0
 40
1.0
 40
1.0
 10
-10.827400000000001
 20
-48.940800000000003
 30
0.0
 10
-10.827400000000001
 20
-48.940800000000003
 30
0.0
 10
-10.020200000000001
 20
-48.133600000000001
 30
0.0
 10
-10.020200000000001
 20
-48.133600000000001
 30
0.0
  0
SPLINE
  5
EB
100
AcDbEntity
  8
LC-004-005-----0
370
    20
100
AcDbSpline
210
0.0
220
0.0
230
1.0
 70
     0
 71
     3
 72
     8
 73
     4
 74
     0
 42
0.0000000001
 43
0.0000000001
 40
0.0
 40
0.0
 40
0.0
 40
0.0
 40
1.0
 40
1.0
 40
1.0
 40
1.0
 10
-14.070600000000001
 20
-51.092300000000002
 30
0.0
 10
-14.070600000000001
 20
-51.092300000000002
 30
0.0
 10
-11.961400000000001
 20
-48.983000000000004
 30
0.0
 10
-11.961400000000001
 20
-48.983000000000004
 30
0.0
  0
SPLINE
  5
EC
100
AcDbEntity
  8
LC-004-005-----0
370
    20
100
AcDbSpline
210
0.0
220
0.0
230
1.0
 70
     0
 71
     3
 72
     8
 73
     4
 74
     0
 42
0.0000000001
 43
0.0000000001
 40
0.0
 40
0.0
 40
0.0
 40
0.0
 40
1.0
 40
1.0
 40
1.0
 40
1.0
 10
-10.827400000000001
 20
-47.8491
 30
0.0
 10
-10.827400000000001
 20
-47.8491
 30
0.0
 10
-10.4198
 20
-47.441500000000005
 30
0.0
 10
-10.4198
 20
-47.441500000000005
 30
0.0
  0
SPLINE
  5
ED
100
AcDbEntity
  8
LC-004-005-----0
370
    20
100
AcDbSpline
210
0.0
220
0.0
230
1.0
 70
     0
 71
     3
 72
     8
 73
     4
 74
     0
 42
0.0000000001
 43
0.0000000001
 40
0.0
 40
0.0
 40
0.0
 40
0.0
 40
1.0
 40
1.0
 40
1.0
 40
1.0
 10
-15.162500000000001
 20
-51.092300000000002
 30
0.0
 10
-15.162500000000001
 20
-51.092300000000002
 30
0.0
 10
-13.875900000000001
 20
-49.805700000000002
 30
0.0
 10
-13.875900000000001
 20
-49.805700000000002
 30
0.0
  0
SPLINE
  5
EE
100
AcDbEntity
  8
LC-004-005-----0
370
    20
100
AcDbSpline
210
0.0
220
0.0
230
1.0
 70
     0
 71
     3
 72
     8
 73
     4
 74
     0
 42
0.0000000001
 43
0.0000000001
 40
0.0
 40
0.0
 40
0.0
 40
0.0
 40
1.0
 40
1.0
 40
1.0
 40
1.0
 10
-13.259300000000001
 20
-49.189100000000003
 30
0.0
 10
-13.259300000000001
 20
-49.189100000000003
 30
0.0
 10
-12.3611
 20
-48.290900000000001
 30
0.0
 10
-12.3611
 20
-48.290900000000001
 30
0.0
  0
SPLINE
  5
EF
100
AcDbEntity
  8
LC-004-005-----0
370
    20
100
AcDbSpline
210
0.0
220
0.0
230
1.0
 70
     0
 71
     3
 72
     8
 73
     4
 74
     0
 42
0.0000000001
 43
0.0000000001
 40
0.0
 40
0.0
 40
0.0
 40
0.0
 40
1.0
 40
1.0
 40
1.0
 40
1.0
 10
-10.827400000000001
 20
-46.757200000000005
 30
0.0
 10
-10.827400000000001
 20
-46.757200000000005
 30
0.0
 10
-10.8195
 20
-46.749300000000005
 30
0.0
 10
-10.8195
 20
-46.749300000000005
 30
0.0
  0
SPLINE
  5
F0
100
AcDbEntity
  8
LC-004-005-----0
370
    20
100
AcDbSpline
210
0.0
220
0.0
230
1.0
 70
     0
 71
     3
 72
     8
 73
     4
 74
     0
 42
0.0000000001
 43
0.0000000001
 40
0.0
 40
0.0
 40
0.0
 40
0.0
 40
1.0
 40
1.0
 40
1.0
 40
1.0
 10
-16.254200000000001
 20
-51.092300000000002
 30
0.0
 10
-16.254200000000001
 20
-51.092300000000002
 30
0.0
 10
-14.3024
 20
-49.140500000000003
 30
0.0
 10
-14.3024
 20
-49.140500000000003
 30
0.0
  0
SPLINE
  5
F1
100
AcDbEntity
  8
LC-004-005-----0
370
    20
100
AcDbSpline
210
0.0
220
0.0
230
1.0
 70
     0
 71
     3
 72
     8
 73
     4
 74
     0
 42
0.0000000001
 43
0.0000000001
 40
0.0
 40
0.0
 40
0.0
 40
0.0
 40
1.0
 40
1.0
 40
1.0
 40
1.0
 10
-13.259300000000001
 20
-48.0974
 30
0.0
 10
-13.259300000000001
 20
-48.0974
 30
0.0
 10
-12.7607
 20
-47.598800000000004
 30
0.0
 10
-12.7607
 20
-47.598800000000004
 30
0.0
  0
SPLINE
  5
F2
100
AcDbEntity
  8
LC-004-005-----0
370
    20
100
AcDbSpline
210
0.0
220
0.0
230
1.0
 70
     0
 71
     3
 72
     8
 73
     4
 74
     0
 42
0.0000000001
 43
0.0000000001
 40
0.0
 40
0.0
 40
0.0
 40
0.0
 40
1.0
 40
1.0
 40
1.0
 40
1.0
 10
-17.3461
 20
-51.092300000000002
 30
0.0
 10
-17.3461
 20
-51.092300000000002
 30
0.0
 10
-16.127600000000001
 20
-49.873899999999999
 30
0.0
 10
-16.127600000000001
 20
-49.873899999999999
 30
0.0
  0
SPLINE
  5
F3
100
AcDbEntity
  8
LC-004-005-----0
370
    20
100
AcDbSpline
210
0.0
220
0.0
230
1.0
 70
     0
 71
     3
 72
     8
 73
     4
 74
     0
 42
0.0000000001
 43
0.0000000001
 40
0.0
 40
0.0
 40
0.0
 40
0.0
 40
1.0
 40
1.0
 40
1.0
 40
1.0
 10
-15.6911
 20
-49.437400000000004
 30
0.0
 10
-15.6911
 20
-49.437400000000004
 30
0.0
 10
-14.702100000000002
 20
-48.448399999999999
 30
0.0
 10
-14.702100000000002
 20
-48.448399999999999
 30
0.0
  0
SPLINE
  5
F4
100
AcDbEntity
  8
LC-004-005-----0
370
    20
100
AcDbSpline
210
0.0
220
0.0
230
1.0
 70
     0
 71
     3
 72
     8
 73
     4
 74
     0
 42
0.0000000001
 43
0.0000000001
 40
0.0
 40
0.0
 40
0.0
 40
0.0
 40
1.0
 40
1.0
 40
1.0
 40
1.0
 10
-13.259300000000001
 20
-47.005600000000001
 30
0.0
 10
-13.259300000000001
 20
-47.005600000000001
 30
0.0
 10
-13.160400000000001
 20
-46.906700000000001
 30
0.0
 10
-13.160400000000001
 20
-46.906700000000001
 30
0.0
  0
SPLINE
  5
F5
100
AcDbEntity
  8
LC-004-005-----0
370
    20
100
AcDbSpline
210
0.0
220
0.0
230
1.0
 70
     0
 71
     3
 72
     8
 73
     4
 74
     0
 42
0.0000000001
 43
0.0000000001
 40
0.0
 40
0.0
 40
0.0
 40
0.0
 40
1.0
 40
1.0
 40
1.0
 40
1.0
 10
-18.437799999999999
 20
-51.092300000000002
 30
0.0
 10
-18.437799999999999
 20
-51.092300000000002
 30
0.0
 10
-16.6433
 20
-49.297900000000006
 30
0.0
 10
-16.6433
 20
-49.297900000000006
 30
0.0
  0
SPLINE
  5
F6
100
AcDbEntity
  8
LC-004-005-----0
370
    20
100
AcDbSpline
210
0.0
220
0.0
230
1.0
 70
     0
 71
     3
 72
     8
 73
     4
 74
     0
 42
0.0000000001
 43
0.0000000001
 40
0.0
 40
0.0
 40
0.0
 40
0.0
 40
1.0
 40
1.0
 40
1.0
 40
1.0
 10
-15.6911
 20
-48.345700000000001
 30
0.0
 10
-15.6911
 20
-48.345700000000001
 30
0.0
 10
-15.101700000000001
 20
-47.7562
 30
0.0
 10
-15.101700000000001
 20
-47.7562
 30
0.0
  0
SPLINE
  5
F7
100
AcDbEntity
  8
LC-004-005-----0
370
    20
100
AcDbSpline
210
0.0
220
0.0
230
1.0
 70
     0
 71
     3
 72
     8
 73
     4
 74
     0
 42
0.0000000001
 43
0.0000000001
 40
0.0
 40
0.0
 40
0.0
 40
0.0
 40
1.0
 40
1.0
 40
1.0
 40
1.0
 10
-19.529600000000002
 20
-51.092300000000002
 30
0.0
 10
-19.529600000000002
 20
-51.092300000000002
 30
0.0
 10
-17.042999999999999
 20
-48.605699999999999
 30
0.0
 10
-17.042999999999999
 20
-48.605699999999999
 30
0.0
  0
SPLINE
  5
F8
100
AcDbEntity
  8
LC-004-005-----0
370
    20
100
AcDbSpline
210
0.0
220
0.0
230
1.0
 70
     0
 71
     3
 72
     8
 73
     4
 74
     0
 42
0.0000000001
 43
0.0000000001
 40
0.0
 40
0.0
 40
0.0
 40
0.0
 40
1.0
 40
1.0
 40
1.0
 40
1.0
 10
-15.6911
 20
-47.253800000000005
 30
0.0
 10
-15.6911
 20
-47.253800000000005
 30
0.0
 10
-15.5014
 20
-47.064100000000003
 30
0.0
 10
-15.5014
 20
-47.064100000000003
 30
0.0
  0
SPLINE
  5
F9
100
AcDbEntity
  8
LC-004-005-----0
370
    20
100
AcDbSpline
210
0.0
220
0.0
230
1.0
 70
     0
 71
     3
 72
     8
 73
     4
 74
     0
 42
0.0000000001
 43
0.0000000001
 40
0.0
 40
0.0
 40
0.0
 40
0.0
 40
1.0
 40
1.0
 40
1.0
 40
1.0
 10
-20.621400000000001
 20
-51.092300000000002
 30
0.0
 10
-20.621400000000001
 20
-51.092300000000002
 30
0.0
 10
-18.9998
 20
-49.470800000000004
 30
0.0
 10
-18.9998
 20
-49.470800000000004
 30
0.0
  0
SPLINE
  5
FA
100
AcDbEntity
  8
LC-004-005-----0
370
    20
100
AcDbSpline
210
0.0
220
0.0
230
1.0
 70
     0
 71
     3
 72
     8
 73
     4
 74
     0
 42
0.0000000001
 43
0.0000000001
 40
0.0
 40
0.0
 40
0.0
 40
0.0
 40
1.0
 40
1.0
 40
1.0
 40
1.0
 10
-18.135100000000001
 20
-48.606200000000001
 30
0.0
 10
-18.135100000000001
 20
-48.606200000000001
 30
0.0
 10
-17.442600000000002
 20
-47.913600000000002
 30
0.0
 10
-17.442600000000002
 20
-47.913600000000002
 30
0.0
  0
SPLINE
  5
FB
100
AcDbEntity
  8
LC-004-005-----0
370
    20
100
AcDbSpline
210
0.0
220
0.0
230
1.0
 70
     0
 71
     3
 72
     8
 73
     4
 74
     0
 42
0.0000000001
 43
0.0000000001
 40
0.0
 40
0.0
 40
0.0
 40
0.0
 40
1.0
 40
1.0
 40
1.0
 40
1.0
 10
-21.713200000000001
 20
-51.092400000000005
 30
0.0
 10
-21.713200000000001
 20
-51.092400000000005
 30
0.0
 10
-19.3995
 20
-48.778700000000001
 30
0.0
 10
-19.3995
 20
-48.778700000000001
 30
0.0
  0
SPLINE
  5
FC
100
AcDbEntity
  8
LC-004-005-----0
370
    20
100
AcDbSpline
210
0.0
220
0.0
230
1.0
 70
     0
 71
     3
 72
     8
 73
     4
 74
     0
 42
0.0000000001
 43
0.0000000001
 40
0.0
 40
0.0
 40
0.0
 40
0.0
 40
1.0
 40
1.0
 40
1.0
 40
1.0
 10
-18.135100000000001
 20
-47.514400000000002
 30
0.0
 10
-18.135100000000001
 20
-47.514400000000002
 30
0.0
 10
-17.842200000000002
 20
-47.221400000000003
 30
0.0
 10
-17.842200000000002
 20
-47.221400000000003
 30
0.0
  0
SPLINE
  5
FD
100
AcDbEntity
  8
LC-004-005-----0
370
    20
100
AcDbSpline
210
0.0
220
0.0
230
1.0
 70
     0
 71
     3
 72
     8
 73
     4
 74
     0
 42
0.0000000001
 43
0.0000000001
 40
0.0
 40
0.0
 40
0.0
 40
0.0
 40
1.0
 40
1.0
 40
1.0
 40
1.0
 10
-22.805
 20
-51.092400000000005
 30
0.0
 10
-22.805
 20
-51.092400000000005
 30
0.0
 10
-21.356300000000001
 20
-49.643900000000002
 30
0.0
 10
-21.356300000000001
 20
-49.643900000000002
 30
0.0
  0
SPLINE
  5
FE
100
AcDbEntity
  8
LC-004-005-----0
370
    20
100
AcDbSpline
210
0.0
220
0.0
230
1.0
 70
     0
 71
     3
 72
     8
 73
     4
 74
     0
 42
0.0000000001
 43
0.0000000001
 40
0.0
 40
0.0
 40
0.0
 40
0.0
 40
1.0
 40
1.0
 40
1.0
 40
1.0
 10
-20.5792
 20
-48.866600000000005
 30
0.0
 10
-20.5792
 20
-48.866600000000005
 30
0.0
 10
-19.799099999999999
 20
-48.086500000000001
 30
0.0
 10
-19.799099999999999
 20
-48.086500000000001
 30
0.0
  0
SPLINE
  5
FF
100
AcDbEntity
  8
LC-004-005-----0
370
    20
100
AcDbSpline
210
0.0
220
0.0
230
1.0
 70
     0
 71
     3
 72
     8
 73
     4
 74
     0
 42
0.0000000001
 43
0.0000000001
 40
0.0
 40
0.0
 40
0.0
 40
0.0
 40
1.0
 40
1.0
 40
1.0
 40
1.0
 10
-23.896800000000002
 20
-51.092400000000005
 30
0.0
 10
-23.896800000000002
 20
-51.092400000000005
 30
0.0
 10
-21.7559
 20
-48.951700000000002
 30
0.0
 10
-21.7559
 20
-48.951700000000002
 30
0.0
  0
SPLINE
  5
100
100
AcDbEntity
  8
LC-004-005-----0
370
    20
100
AcDbSpline
210
0.0
220
0.0
230
1.0
 70
     0
 71
     3
 72
     8
 73
     4
 74
     0
 42
0.0000000001
 43
0.0000000001
 40
0.0
 40
0.0
 40
0.0
 40
0.0
 40
1.0
 40
1.0
 40
1.0
 40
1.0
 10
-20.5792
 20
-47.774900000000002
 30
0.0
 10
-20.5792
 20
-47.774900000000002
 30
0.0
 10
-20.198700000000002
 20
-47.394400000000005
 30
0.0
 10
-20.198700000000002
 20
-47.394400000000005
 30
0.0
  0
SPLINE
  5
101
100
AcDbEntity
  8
LC-004-005-----0
370
    20
100
AcDbSpline
210
0.0
220
0.0
230
1.0
 70
     0
 71
     3
 72
     8
 73
     4
 74
     0
 42
0.0000000001
 43
0.0000000001
 40
0.0
 40
0.0
 40
0.0
 40
0.0
 40
1.0
 40
1.0
 40
1.0
 40
1.0
 10
-24.756900000000002
 20
-50.860800000000005
 30
0.0
 10
-24.756900000000002
 20
-50.860800000000005
 30
0.0
 10
-23.7301
 20
-49.834099999999999
 30
0.0
 10
-23.7301
 20
-49.834099999999999
 30
0.0
  0
SPLINE
  5
102
100
AcDbEntity
  8
LC-004-005-----0
370
    20
100
AcDbSpline
210
0.0
220
0.0
230
1.0
 70
     0
 71
     3
 72
     8
 73
     4
 74
     0
 42
0.0000000001
 43
0.0000000001
 40
0.0
 40
0.0
 40
0.0
 40
0.0
 40
1.0
 40
1.0
 40
1.0
 40
1.0
 10
-23.025200000000002
 20
-49.129000000000005
 30
0.0
 10
-23.025200000000002
 20
-49.129000000000005
 30
0.0
 10
-22.1556
 20
-48.259500000000003
 30
0.0
 10
-22.1556
 20
-48.259500000000003
 30
0.0
  0
SPLINE
  5
103
100
AcDbEntity
  8
LC-004-005-----0
370
    20
100
AcDbSpline
210
0.0
220
0.0
230
1.0
 70
     0
 71
     3
 72
     8
 73
     4
 74
     0
 42
0.0000000001
 43
0.0000000001
 40
0.0
 40
0.0
 40
0.0
 40
0.0
 40
1.0
 40
1.0
 40
1.0
 40
1.0
 10
-24.977500000000003
 20
-49.989600000000003
 30
0.0
 10
-24.977500000000003
 20
-49.989600000000003
 30
0.0
 10
-24.226100000000002
 20
-49.238199999999999
 30
0.0
 10
-24.226100000000002
 20
-49.238199999999999
 30
0.0
  0
SPLINE
  5
104
100
AcDbEntity
  8
LC-004-005-----0
370
    20
100
AcDbSpline
210
0.0
220
0.0
230
1.0
 70
     0
 71
     3
 72
     8
 73
     4
 74
     0
 42
0.0000000001
 43
0.0000000001
 40
0.0
 40
0.0
 40
0.0
 40
0.0
 40
1.0
 40
1.0
 40
1.0
 40
1.0
 10
-23.025200000000002
 20
-48.037300000000002
 30
0.0
 10
-23.025200000000002
 20
-48.037300000000002
 30
0.0
 10
-22.555200000000003
 20
-47.567399999999999
 30
0.0
 10
-22.555200000000003
 20
-47.567399999999999
 30
0.0
  0
SPLINE
  5
105
100
AcDbEntity
  8
LC-004-005-----0
370
    20
100
AcDbSpline
210
0.0
220
0.0
230
1.0
 70
     0
 71
     3
 72
     8
 73
     4
 74
     0
 42
0.0000000001
 43
0.0000000001
 40
0.0
 40
0.0
 40
0.0
 40
0.0
 40
1.0
 40
1.0
 40
1.0
 40
1.0
 10
-23.025200000000002
 20
-46.945599999999999
 30
0.0
 10
-23.025200000000002
 20
-46.945599999999999
 30
0.0
 10
-22.954800000000002
 20
-46.8752
 30
0.0
 10
-22.954800000000002
 20
-46.8752
 30
0.0
  0
SPLINE
  5
106
100
AcDbEntity
  8
LC-004-005-----0
370
    35
100
AcDbSpline
210
0.0
220
0.0
230
1.0
 70
     0
 71
     3
 72
     8
 73
     4
 74
     0
 42
0.0000000001
 43
0.0000000001
 40
0.0
 40
0.0
 40
0.0
 40
0.0
 40
1.0
 40
1.0
 40
1.0
 40
1.0
 10
-53.441700000000004
 20
-16.6325
 30
0.0
 10
-53.441700000000004
 20
-16.6325
 30
0.0
 10
-53.335800000000006
 20
-16.526500000000002
 30
0.0
 10
-53.335800000000006
 20
-16.526500000000002
 30
0.0
  0
SPLINE
  5
107
100
AcDbEntity
  8
LC-004-005-----0
370
    35
100
AcDbSpline
210
0.0
220
0.0
230
1.0
 70
     0
 71
     3
 72
     8
 73
     4
 74
     0
 42
0.0000000001
 43
0.0000000001
 40
0.0
 40
0.0
 40
0.0
 40
0.0
 40
1.0
 40
1.0
 40
1.0
 40
1.0
 10
-53.578099999999999
 20
-16.6325
 30
0.0
 10
-53.578099999999999
 20
-16.6325
 30
0.0
 10
-53.335800000000006
 20
-16.3901
 30
0.0
 10
-53.335800000000006
 20
-16.3901
 30
0.0
  0
SPLINE
  5
108
100
AcDbEntity
  8
LC-004-005-----0
370
    35
100
AcDbSpline
210
0.0
220
0.0
230
1.0
 70
     0
 71
     3
 72
     8
 73
     4
 74
     0
 42
0.0000000001
 43
0.0000000001
 40
0.0
 40
0.0
 40
0.0
 40
0.0
 40
1.0
 40
1.0
 40
1.0
 40
1.0
 10
-53.714600000000004
 20
-16.6325
 30
0.0
 10
-53.714600000000004
 20
-16.6325
 30
0.0
 10
-53.335800000000006
 20
-16.253600000000002
 30
0.0
 10
-53.335800000000006
 20
-16.253600000000002
 30
0.0
  0
SPLINE
  5
109
100
AcDbEntity
  8
LC-004-005-----0
370
    35
100
AcDbSpline
210
0.0
220
0.0
230
1.0
 70
     0
 71
     3
 72
     8
 73
     4
 74
     0
 42
0.0000000001
 43
0.0000000001
 40
0.0
 40
0.0
 40
0.0
 40
0.0
 40
1.0
 40
1.0
 40
1.0
 40
1.0
 10
-54.462500000000006
 20
-17.2439
 30
0.0
 10
-54.462500000000006
 20
-17.2439
 30
0.0
 10
-54.384900000000002
 20
-17.1663
 30
0.0
 10
-54.384900000000002
 20
-17.1663
 30
0.0
  0
SPLINE
  5
10A
100
AcDbEntity
  8
LC-004-005-----0
370
    35
100
AcDbSpline
210
0.0
220
0.0
230
1.0
 70
     0
 71
     3
 72
     8
 73
     4
 74
     0
 42
0.0000000001
 43
0.0000000001
 40
0.0
 40
0.0
 40
0.0
 40
0.0
 40
1.0
 40
1.0
 40
1.0
 40
1.0
 10
-53.850999999999999
 20
-16.6325
 30
0.0
 10
-53.850999999999999
 20
-16.6325
 30
0.0
 10
-53.335800000000006
 20
-16.117100000000001
 30
0.0
 10
-53.335800000000006
 20
-16.117100000000001
 30
0.0
  0
SPLINE
  5
10B
100
AcDbEntity
  8
LC-004-005-----0
370
    35
100
AcDbSpline
210
0.0
220
0.0
230
1.0
 70
     0
 71
     3
 72
     8
 73
     4
 74
     0
 42
0.0000000001
 43
0.0000000001
 40
0.0
 40
0.0
 40
0.0
 40
0.0
 40
1.0
 40
1.0
 40
1.0
 40
1.0
 10
-54.613199999999999
 20
-17.258100000000002
 30
0.0
 10
-54.613199999999999
 20
-17.258100000000002
 30
0.0
 10
-54.370600000000003
 20
-17.015599999999999
 30
0.0
 10
-54.370600000000003
 20
-17.015599999999999
 30
0.0
  0
SPLINE
  5
10C
100
AcDbEntity
  8
LC-004-005-----0
370
    35
100
AcDbSpline
210
0.0
220
0.0
230
1.0
 70
     0
 71
     3
 72
     8
 73
     4
 74
     0
 42
0.0000000001
 43
0.0000000001
 40
0.0
 40
0.0
 40
0.0
 40
0.0
 40
1.0
 40
1.0
 40
1.0
 40
1.0
 10
-53.987500000000004
 20
-16.6325
 30
0.0
 10
-53.987500000000004
 20
-16.6325
 30
0.0
 10
-53.335800000000006
 20
-15.980600000000001
 30
0.0
 10
-53.335800000000006
 20
-15.980600000000001
 30
0.0
  0
SPLINE
  5
10D
100
AcDbEntity
  8
LC-004-005-----0
370
    35
100
AcDbSpline
210
0.0
220
0.0
230
1.0
 70
     0
 71
     3
 72
     8
 73
     4
 74
     0
 42
0.0000000001
 43
0.0000000001
 40
0.0
 40
0.0
 40
0.0
 40
0.0
 40
1.0
 40
1.0
 40
1.0
 40
1.0
 10
-54.714700000000001
 20
-17.223100000000002
 30
0.0
 10
-54.714700000000001
 20
-17.223100000000002
 30
0.0
 10
-54.403800000000004
 20
-16.912300000000002
 30
0.0
 10
-54.403800000000004
 20
-16.912300000000002
 30
0.0
  0
SPLINE
  5
10E
100
AcDbEntity
  8
LC-004-005-----0
370
    35
100
AcDbSpline
210
0.0
220
0.0
230
1.0
 70
     0
 71
     3
 72
     8
 73
     4
 74
     0
 42
0.0000000001
 43
0.0000000001
 40
0.0
 40
0.0
 40
0.0
 40
0.0
 40
1.0
 40
1.0
 40
1.0
 40
1.0
 10
-54.124000000000002
 20
-16.6325
 30
0.0
 10
-54.124000000000002
 20
-16.6325
 30
0.0
 10
-53.335800000000006
 20
-15.844100000000001
 30
0.0
 10
-53.335800000000006
 20
-15.844100000000001
 30
0.0
  0
SPLINE
  5
10F
100
AcDbEntity
  8
LC-004-005-----0
370
    35
100
AcDbSpline
210
0.0
220
0.0
230
1.0
 70
     0
 71
     3
 72
     8
 73
     4
 74
     0
 42
0.0000000001
 43
0.0000000001
 40
0.0
 40
0.0
 40
0.0
 40
0.0
 40
1.0
 40
1.0
 40
1.0
 40
1.0
 10
-54.816000000000003
 20
-17.188000000000002
 30
0.0
 10
-54.816000000000003
 20
-17.188000000000002
 30
0.0
 10
-54.437000000000005
 20
-16.809000000000001
 30
0.0
 10
-54.437000000000005
 20
-16.809000000000001
 30
0.0
  0
SPLINE
  5
110
100
AcDbEntity
  8
LC-004-005-----0
370
    35
100
AcDbSpline
210
0.0
220
0.0
230
1.0
 70
     0
 71
     3
 72
     8
 73
     4
 74
     0
 42
0.0000000001
 43
0.0000000001
 40
0.0
 40
0.0
 40
0.0
 40
0.0
 40
1.0
 40
1.0
 40
1.0
 40
1.0
 10
-54.2605
 20
-16.6325
 30
0.0
 10
-54.2605
 20
-16.6325
 30
0.0
 10
-53.335800000000006
 20
-15.707800000000001
 30
0.0
 10
-53.335800000000006
 20
-15.707800000000001
 30
0.0
  0
SPLINE
  5
111
100
AcDbEntity
  8
LC-004-005-----0
370
    35
100
AcDbSpline
210
0.0
220
0.0
230
1.0
 70
     0
 71
     3
 72
     8
 73
     4
 74
     0
 42
0.0000000001
 43
0.0000000001
 40
0.0
 40
0.0
 40
0.0
 40
0.0
 40
1.0
 40
1.0
 40
1.0
 40
1.0
 10
-54.917500000000004
 20
-17.153000000000002
 30
0.0
 10
-54.917500000000004
 20
-17.153000000000002
 30
0.0
 10
-54.470200000000006
 20
-16.7057
 30
0.0
 10
-54.470200000000006
 20
-16.7057
 30
0.0
  0
SPLINE
  5
112
100
AcDbEntity
  8
LC-004-005-----0
370
    35
100
AcDbSpline
210
0.0
220
0.0
230
1.0
 70
     0
 71
     3
 72
     8
 73
     4
 74
     0
 42
0.0000000001
 43
0.0000000001
 40
0.0
 40
0.0
 40
0.0
 40
0.0
 40
1.0
 40
1.0
 40
1.0
 40
1.0
 10
-54.397000000000006
 20
-16.6325
 30
0.0
 10
-54.397000000000006
 20
-16.6325
 30
0.0
 10
-53.335800000000006
 20
-15.571300000000001
 30
0.0
 10
-53.335800000000006
 20
-15.571300000000001
 30
0.0
  0
SPLINE
  5
113
100
AcDbEntity
  8
LC-004-005-----0
370
    35
100
AcDbSpline
210
0.0
220
0.0
230
1.0
 70
     0
 71
     3
 72
     8
 73
     4
 74
     0
 42
0.0000000001
 43
0.0000000001
 40
0.0
 40
0.0
 40
0.0
 40
0.0
 40
1.0
 40
1.0
 40
1.0
 40
1.0
 10
-55.018900000000002
 20
-17.117900000000002
 30
0.0
 10
-55.018900000000002
 20
-17.117900000000002
 30
0.0
 10
-53.761500000000005
 20
-15.8605
 30
0.0
 10
-53.761500000000005
 20
-15.8605
 30
0.0
  0
SPLINE
  5
114
100
AcDbEntity
  8
LC-004-005-----0
370
    35
100
AcDbSpline
210
0.0
220
0.0
230
1.0
 70
     0
 71
     3
 72
     8
 73
     4
 74
     0
 42
0.0000000001
 43
0.0000000001
 40
0.0
 40
0.0
 40
0.0
 40
0.0
 40
1.0
 40
1.0
 40
1.0
 40
1.0
 10
-53.721800000000002
 20
-15.8208
 30
0.0
 10
-53.721800000000002
 20
-15.8208
 30
0.0
 10
-53.375500000000002
 20
-15.474500000000001
 30
0.0
 10
-53.375500000000002
 20
-15.474500000000001
 30
0.0
  0
SPLINE
  5
115
100
AcDbEntity
  8
LC-004-005-----0
370
    35
100
AcDbSpline
210
0.0
220
0.0
230
1.0
 70
     0
 71
     3
 72
     8
 73
     4
 74
     0
 42
0.0000000001
 43
0.0000000001
 40
0.0
 40
0.0
 40
0.0
 40
0.0
 40
1.0
 40
1.0
 40
1.0
 40
1.0
 10
-55.1203
 20
-17.082900000000002
 30
0.0
 10
-55.1203
 20
-17.082900000000002
 30
0.0
 10
-53.8979
 20
-15.8605
 30
0.0
 10
-53.8979
 20
-15.8605
 30
0.0
  0
SPLINE
  5
116
100
AcDbEntity
  8
LC-004-005-----0
370
    35
100
AcDbSpline
210
0.0
220
0.0
230
1.0
 70
     0
 71
     3
 72
     8
 73
     4
 74
     0
 42
0.0000000001
 43
0.0000000001
 40
0.0
 40
0.0
 40
0.0
 40
0.0
 40
1.0
 40
1.0
 40
1.0
 40
1.0
 10
-53.721800000000002
 20
-15.6843
 30
0.0
 10
-53.721800000000002
 20
-15.6843
 30
0.0
 10
-53.511900000000004
 20
-15.474500000000001
 30
0.0
 10
-53.511900000000004
 20
-15.474500000000001
 30
0.0
  0
SPLINE
  5
117
100
AcDbEntity
  8
LC-004-005-----0
370
    35
100
AcDbSpline
210
0.0
220
0.0
230
1.0
 70
     0
 71
     3
 72
     8
 73
     4
 74
     0
 42
0.0000000001
 43
0.0000000001
 40
0.0
 40
0.0
 40
0.0
 40
0.0
 40
1.0
 40
1.0
 40
1.0
 40
1.0
 10
-55.221800000000002
 20
-17.047900000000002
 30
0.0
 10
-55.221800000000002
 20
-17.047900000000002
 30
0.0
 10
-54.034400000000005
 20
-15.8605
 30
0.0
 10
-54.034400000000005
 20
-15.8605
 30
0.0
  0
SPLINE
  5
118
100
AcDbEntity
  8
LC-004-005-----0
370
    35
100
AcDbSpline
210
0.0
220
0.0
230
1.0
 70
     0
 71
     3
 72
     8
 73
     4
 74
     0
 42
0.0000000001
 43
0.0000000001
 40
0.0
 40
0.0
 40
0.0
 40
0.0
 40
1.0
 40
1.0
 40
1.0
 40
1.0
 10
-53.721800000000002
 20
-15.547800000000001
 30
0.0
 10
-53.721800000000002
 20
-15.547800000000001
 30
0.0
 10
-53.648400000000002
 20
-15.474500000000001
 30
0.0
 10
-53.648400000000002
 20
-15.474500000000001
 30
0.0
  0
SPLINE
  5
119
100
AcDbEntity
  8
LC-004-005-----0
370
    35
100
AcDbSpline
210
0.0
220
0.0
230
1.0
 70
     0
 71
     3
 72
     8
 73
     4
 74
     0
 42
0.0000000001
 43
0.0000000001
 40
0.0
 40
0.0
 40
0.0
 40
0.0
 40
1.0
 40
1.0
 40
1.0
 40
1.0
 10
-55.3232
 20
-17.012800000000002
 30
0.0
 10
-55.3232
 20
-17.012800000000002
 30
0.0
 10
-54.107800000000005
 20
-15.797400000000001
 30
0.0
 10
-54.107800000000005
 20
-15.797400000000001
 30
0.0
  0
SPLINE
  5
11A
100
AcDbEntity
  8
LC-004-005-----0
370
    35
100
AcDbSpline
210
0.0
220
0.0
230
1.0
 70
     0
 71
     3
 72
     8
 73
     4
 74
     0
 42
0.0000000001
 43
0.0000000001
 40
0.0
 40
0.0
 40
0.0
 40
0.0
 40
1.0
 40
1.0
 40
1.0
 40
1.0
 10
-55.424600000000005
 20
-16.977800000000002
 30
0.0
 10
-55.424600000000005
 20
-16.977800000000002
 30
0.0
 10
-54.107800000000005
 20
-15.660900000000002
 30
0.0
 10
-54.107800000000005
 20
-15.660900000000002
 30
0.0
  0
SPLINE
  5
11B
100
AcDbEntity
  8
LC-004-005-----0
370
    35
100
AcDbSpline
210
0.0
220
0.0
230
1.0
 70
     0
 71
     3
 72
     8
 73
     4
 74
     0
 42
0.0000000001
 43
0.0000000001
 40
0.0
 40
0.0
 40
0.0
 40
0.0
 40
1.0
 40
1.0
 40
1.0
 40
1.0
 10
-55.5261
 20
-16.942700000000002
 30
0.0
 10
-55.5261
 20
-16.942700000000002
 30
0.0
 10
-54.107800000000005
 20
-15.5244
 30
0.0
 10
-54.107800000000005
 20
-15.5244
 30
0.0
  0
SPLINE
  5
11C
100
AcDbEntity
  8
LC-004-005-----0
370
    35
100
AcDbSpline
210
0.0
220
0.0
230
1.0
 70
     0
 71
     3
 72
     8
 73
     4
 74
     0
 42
0.0000000001
 43
0.0000000001
 40
0.0
 40
0.0
 40
0.0
 40
0.0
 40
1.0
 40
1.0
 40
1.0
 40
1.0
 10
-55.627500000000005
 20
-16.907700000000002
 30
0.0
 10
-55.627500000000005
 20
-16.907700000000002
 30
0.0
 10
-54.194200000000002
 20
-15.474500000000001
 30
0.0
 10
-54.194200000000002
 20
-15.474500000000001
 30
0.0
  0
SPLINE
  5
11D
100
AcDbEntity
  8
LC-004-005-----0
370
    35
100
AcDbSpline
210
0.0
220
0.0
230
1.0
 70
     0
 71
     3
 72
     8
 73
     4
 74
     0
 42
0.0000000001
 43
0.0000000001
 40
0.0
 40
0.0
 40
0.0
 40
0.0
 40
1.0
 40
1.0
 40
1.0
 40
1.0
 10
-55.728900000000003
 20
-16.872600000000002
 30
0.0
 10
-55.728900000000003
 20
-16.872600000000002
 30
0.0
 10
-54.3307
 20
-15.474500000000001
 30
0.0
 10
-54.3307
 20
-15.474500000000001
 30
0.0
  0
SPLINE
  5
11E
100
AcDbEntity
  8
LC-004-005-----0
370
    35
100
AcDbSpline
210
0.0
220
0.0
230
1.0
 70
     0
 71
     3
 72
     8
 73
     4
 74
     0
 42
0.0000000001
 43
0.0000000001
 40
0.0
 40
0.0
 40
0.0
 40
0.0
 40
1.0
 40
1.0
 40
1.0
 40
1.0
 10
-55.830200000000005
 20
-16.837600000000002
 30
0.0
 10
-55.830200000000005
 20
-16.837600000000002
 30
0.0
 10
-54.467200000000005
 20
-15.474500000000001
 30
0.0
 10
-54.467200000000005
 20
-15.474500000000001
 30
0.0
  0
SPLINE
  5
11F
100
AcDbEntity
  8
LC-004-005-----0
370
    35
100
AcDbSpline
210
0.0
220
0.0
230
1.0
 70
     0
 71
     3
 72
     8
 73
     4
 74
     0
 42
0.0000000001
 43
0.0000000001
 40
0.0
 40
0.0
 40
0.0
 40
0.0
 40
1.0
 40
1.0
 40
1.0
 40
1.0
 10
-55.931699999999999
 20
-16.802500000000002
 30
0.0
 10
-55.931699999999999
 20
-16.802500000000002
 30
0.0
 10
-54.603700000000003
 20
-15.474500000000001
 30
0.0
 10
-54.603700000000003
 20
-15.474500000000001
 30
0.0
  0
SPLINE
  5
120
100
AcDbEntity
  8
LC-004-005-----0
370
    35
100
AcDbSpline
210
0.0
220
0.0
230
1.0
 70
     0
 71
     3
 72
     8
 73
     4
 74
     0
 42
0.0000000001
 43
0.0000000001
 40
0.0
 40
0.0
 40
0.0
 40
0.0
 40
1.0
 40
1.0
 40
1.0
 40
1.0
 10
-56.033100000000005
 20
-16.767500000000002
 30
0.0
 10
-56.033100000000005
 20
-16.767500000000002
 30
0.0
 10
-54.740100000000005
 20
-15.474500000000001
 30
0.0
 10
-54.740100000000005
 20
-15.474500000000001
 30
0.0
  0
SPLINE
  5
121
100
AcDbEntity
  8
LC-004-005-----0
370
    35
100
AcDbSpline
210
0.0
220
0.0
230
1.0
 70
     0
 71
     3
 72
     8
 73
     4
 74
     0
 42
0.0000000001
 43
0.0000000001
 40
0.0
 40
0.0
 40
0.0
 40
0.0
 40
1.0
 40
1.0
 40
1.0
 40
1.0
 10
-56.134500000000003
 20
-16.732400000000002
 30
0.0
 10
-56.134500000000003
 20
-16.732400000000002
 30
0.0
 10
-54.876600000000003
 20
-15.474500000000001
 30
0.0
 10
-54.876600000000003
 20
-15.474500000000001
 30
0.0
  0
SPLINE
  5
122
100
AcDbEntity
  8
LC-004-005-----0
370
    35
100
AcDbSpline
210
0.0
220
0.0
230
1.0
 70
     0
 71
     3
 72
     8
 73
     4
 74
     0
 42
0.0000000001
 43
0.0000000001
 40
0.0
 40
0.0
 40
0.0
 40
0.0
 40
1.0
 40
1.0
 40
1.0
 40
1.0
 10
-56.236000000000004
 20
-16.697400000000002
 30
0.0
 10
-56.236000000000004
 20
-16.697400000000002
 30
0.0
 10
-55.013100000000001
 20
-15.474500000000001
 30
0.0
 10
-55.013100000000001
 20
-15.474500000000001
 30
0.0
  0
SPLINE
  5
123
100
AcDbEntity
  8
LC-004-005-----0
370
    35
100
AcDbSpline
210
0.0
220
0.0
230
1.0
 70
     0
 71
     3
 72
     8
 73
     4
 74
     0
 42
0.0000000001
 43
0.0000000001
 40
0.0
 40
0.0
 40
0.0
 40
0.0
 40
1.0
 40
1.0
 40
1.0
 40
1.0
 10
-56.337400000000002
 20
-16.662300000000002
 30
0.0
 10
-56.337400000000002
 20
-16.662300000000002
 30
0.0
 10
-55.1496
 20
-15.474500000000001
 30
0.0
 10
-55.1496
 20
-15.474500000000001
 30
0.0
  0
SPLINE
  5
124
100
AcDbEntity
  8
LC-004-005-----0
370
    35
100
AcDbSpline
210
0.0
220
0.0
230
1.0
 70
     0
 71
     3
 72
     8
 73
     4
 74
     0
 42
0.0000000001
 43
0.0000000001
 40
0.0
 40
0.0
 40
0.0
 40
0.0
 40
1.0
 40
1.0
 40
1.0
 40
1.0
 10
-56.4238
 20
-16.612200000000001
 30
0.0
 10
-56.4238
 20
-16.612200000000001
 30
0.0
 10
-55.286100000000005
 20
-15.474500000000001
 30
0.0
 10
-55.286100000000005
 20
-15.474500000000001
 30
0.0
  0
SPLINE
  5
125
100
AcDbEntity
  8
LC-004-005-----0
370
    35
100
AcDbSpline
210
0.0
220
0.0
230
1.0
 70
     0
 71
     3
 72
     8
 73
     4
 74
     0
 42
0.0000000001
 43
0.0000000001
 40
0.0
 40
0.0
 40
0.0
 40
0.0
 40
1.0
 40
1.0
 40
1.0
 40
1.0
 10
-56.4238
 20
-16.4757
 30
0.0
 10
-56.4238
 20
-16.4757
 30
0.0
 10
-55.422499999999999
 20
-15.474500000000001
 30
0.0
 10
-55.422499999999999
 20
-15.474500000000001
 30
0.0
  0
SPLINE
  5
126
100
AcDbEntity
  8
LC-004-005-----0
370
    35
100
AcDbSpline
210
0.0
220
0.0
230
1.0
 70
     0
 71
     3
 72
     8
 73
     4
 74
     0
 42
0.0000000001
 43
0.0000000001
 40
0.0
 40
0.0
 40
0.0
 40
0.0
 40
1.0
 40
1.0
 40
1.0
 40
1.0
 10
-56.4238
 20
-16.339200000000002
 30
0.0
 10
-56.4238
 20
-16.339200000000002
 30
0.0
 10
-55.559000000000005
 20
-15.474500000000001
 30
0.0
 10
-55.559000000000005
 20
-15.474500000000001
 30
0.0
  0
SPLINE
  5
127
100
AcDbEntity
  8
LC-004-005-----0
370
    35
100
AcDbSpline
210
0.0
220
0.0
230
1.0
 70
     0
 71
     3
 72
     8
 73
     4
 74
     0
 42
0.0000000001
 43
0.0000000001
 40
0.0
 40
0.0
 40
0.0
 40
0.0
 40
1.0
 40
1.0
 40
1.0
 40
1.0
 10
-56.4238
 20
-16.2027
 30
0.0
 10
-56.4238
 20
-16.2027
 30
0.0
 10
-55.695500000000003
 20
-15.474500000000001
 30
0.0
 10
-55.695500000000003
 20
-15.474500000000001
 30
0.0
  0
SPLINE
  5
128
100
AcDbEntity
  8
LC-004-005-----0
370
    35
100
AcDbSpline
210
0.0
220
0.0
230
1.0
 70
     0
 71
     3
 72
     8
 73
     4
 74
     0
 42
0.0000000001
 43
0.0000000001
 40
0.0
 40
0.0
 40
0.0
 40
0.0
 40
1.0
 40
1.0
 40
1.0
 40
1.0
 10
-56.4238
 20
-16.066300000000002
 30
0.0
 10
-56.4238
 20
-16.066300000000002
 30
0.0
 10
-55.832000000000001
 20
-15.474500000000001
 30
0.0
 10
-55.832000000000001
 20
-15.474500000000001
 30
0.0
  0
SPLINE
  5
129
100
AcDbEntity
  8
LC-004-005-----0
370
    35
100
AcDbSpline
210
0.0
220
0.0
230
1.0
 70
     0
 71
     3
 72
     8
 73
     4
 74
     0
 42
0.0000000001
 43
0.0000000001
 40
0.0
 40
0.0
 40
0.0
 40
0.0
 40
1.0
 40
1.0
 40
1.0
 40
1.0
 10
-56.4238
 20
-15.9298
 30
0.0
 10
-56.4238
 20
-15.9298
 30
0.0
 10
-55.968400000000003
 20
-15.474500000000001
 30
0.0
 10
-55.968400000000003
 20
-15.474500000000001
 30
0.0
  0
SPLINE
  5
12A
100
AcDbEntity
  8
LC-004-005-----0
370
    35
100
AcDbSpline
210
0.0
220
0.0
230
1.0
 70
     0
 71
     3
 72
     8
 73
     4
 74
     0
 42
0.0000000001
 43
0.0000000001
 40
0.0
 40
0.0
 40
0.0
 40
0.0
 40
1.0
 40
1.0
 40
1.0
 40
1.0
 10
-56.4238
 20
-15.7933
 30
0.0
 10
-56.4238
 20
-15.7933
 30
0.0
 10
-56.104800000000004
 20
-15.474500000000001
 30
0.0
 10
-56.104800000000004
 20
-15.474500000000001
 30
0.0
  0
SPLINE
  5
12B
100
AcDbEntity
  8
LC-004-005-----0
370
    35
100
AcDbSpline
210
0.0
220
0.0
230
1.0
 70
     0
 71
     3
 72
     8
 73
     4
 74
     0
 42
0.0000000001
 43
0.0000000001
 40
0.0
 40
0.0
 40
0.0
 40
0.0
 40
1.0
 40
1.0
 40
1.0
 40
1.0
 10
-56.4238
 20
-15.6568
 30
0.0
 10
-56.4238
 20
-15.6568
 30
0.0
 10
-56.241300000000003
 20
-15.474500000000001
 30
0.0
 10
-56.241300000000003
 20
-15.474500000000001
 30
0.0
  0
SPLINE
  5
12C
100
AcDbEntity
  8
LC-004-005-----0
370
    35
100
AcDbSpline
210
0.0
220
0.0
230
1.0
 70
     0
 71
     3
 72
     8
 73
     4
 74
     0
 42
0.0000000001
 43
0.0000000001
 40
0.0
 40
0.0
 40
0.0
 40
0.0
 40
1.0
 40
1.0
 40
1.0
 40
1.0
 10
-56.4238
 20
-15.520300000000001
 30
0.0
 10
-56.4238
 20
-15.520300000000001
 30
0.0
 10
-56.377800000000001
 20
-15.474500000000001
 30
0.0
 10
-56.377800000000001
 20
-15.474500000000001
 30
0.0
  0
SPLINE
  5
12D
100
AcDbEntity
  8
LC-004-005-----0
370
    35
100
AcDbSpline
210
0.0
220
0.0
230
1.0
 70
     0
 71
     3
 72
     8
 73
     4
 74
     0
 42
0.0000000001
 43
0.0000000001
 40
0.0
 40
0.0
 40
0.0
 40
0.0
 40
1.0
 40
1.0
 40
1.0
 40
1.0
 10
-56.4238
 20
-17.308
 30
0.0
 10
-56.4238
 20
-17.308
 30
0.0
 10
-56.4236
 20
-48.091300000000004
 30
0.0
 10
-56.4236
 20
-48.091300000000004
 30
0.0
  0
SPLINE
  5
12E
100
AcDbEntity
  8
LC-004-005-----0
370
    35
100
AcDbSpline
210
0.0
220
0.0
230
1.0
 70
     0
 71
     3
 72
     8
 73
     4
 74
     0
 42
0.0000000001
 43
0.0000000001
 40
0.0
 40
0.0
 40
0.0
 40
0.0
 40
1.0
 40
1.0
 40
1.0
 40
1.0
 10
-53.375700000000002
 20
-48.091300000000004
 30
0.0
 10
-53.375700000000002
 20
-48.091300000000004
 30
0.0
 10
-53.335599999999999
 20
-48.051100000000005
 30
0.0
 10
-53.335599999999999
 20
-48.051100000000005
 30
0.0
  0
SPLINE
  5
12F
100
AcDbEntity
  8
LC-004-005-----0
370
    35
100
AcDbSpline
210
0.0
220
0.0
230
1.0
 70
     0
 71
     3
 72
     8
 73
     4
 74
     0
 42
0.0000000001
 43
0.0000000001
 40
0.0
 40
0.0
 40
0.0
 40
0.0
 40
1.0
 40
1.0
 40
1.0
 40
1.0
 10
-53.5122
 20
-48.091300000000004
 30
0.0
 10
-53.5122
 20
-48.091300000000004
 30
0.0
 10
-53.335599999999999
 20
-47.914700000000003
 30
0.0
 10
-53.335599999999999
 20
-47.914700000000003
 30
0.0
  0
SPLINE
  5
130
100
AcDbEntity
  8
LC-004-005-----0
370
    35
100
AcDbSpline
210
0.0
220
0.0
230
1.0
 70
     0
 71
     3
 72
     8
 73
     4
 74
     0
 42
0.0000000001
 43
0.0000000001
 40
0.0
 40
0.0
 40
0.0
 40
0.0
 40
1.0
 40
1.0
 40
1.0
 40
1.0
 10
-53.648600000000002
 20
-48.091300000000004
 30
0.0
 10
-53.648600000000002
 20
-48.091300000000004
 30
0.0
 10
-53.335599999999999
 20
-47.778300000000002
 30
0.0
 10
-53.335599999999999
 20
-47.778300000000002
 30
0.0
  0
SPLINE
  5
131
100
AcDbEntity
  8
LC-004-005-----0
370
    35
100
AcDbSpline
210
0.0
220
0.0
230
1.0
 70
     0
 71
     3
 72
     8
 73
     4
 74
     0
 42
0.0000000001
 43
0.0000000001
 40
0.0
 40
0.0
 40
0.0
 40
0.0
 40
1.0
 40
1.0
 40
1.0
 40
1.0
 10
-53.721600000000002
 20
-48.027799999999999
 30
0.0
 10
-53.721600000000002
 20
-48.027799999999999
 30
0.0
 10
-53.335599999999999
 20
-47.641800000000003
 30
0.0
 10
-53.335599999999999
 20
-47.641800000000003
 30
0.0
  0
SPLINE
  5
132
100
AcDbEntity
  8
LC-004-005-----0
370
    35
100
AcDbSpline
210
0.0
220
0.0
230
1.0
 70
     0
 71
     3
 72
     8
 73
     4
 74
     0
 42
0.0000000001
 43
0.0000000001
 40
0.0
 40
0.0
 40
0.0
 40
0.0
 40
1.0
 40
1.0
 40
1.0
 40
1.0
 10
-53.721600000000002
 20
-47.891300000000001
 30
0.0
 10
-53.721600000000002
 20
-47.891300000000001
 30
0.0
 10
-53.335599999999999
 20
-47.505300000000005
 30
0.0
 10
-53.335599999999999
 20
-47.505300000000005
 30
0.0
  0
SPLINE
  5
133
100
AcDbEntity
  8
LC-004-005-----0
370
    35
100
AcDbSpline
210
0.0
220
0.0
230
1.0
 70
     0
 71
     3
 72
     8
 73
     4
 74
     0
 42
0.0000000001
 43
0.0000000001
 40
0.0
 40
0.0
 40
0.0
 40
0.0
 40
1.0
 40
1.0
 40
1.0
 40
1.0
 10
-53.721600000000002
 20
-47.754800000000003
 30
0.0
 10
-53.721600000000002
 20
-47.754800000000003
 30
0.0
 10
-53.335599999999999
 20
-47.3688
 30
0.0
 10
-53.335599999999999
 20
-47.3688
 30
0.0
  0
SPLINE
  5
134
100
AcDbEntity
  8
LC-004-005-----0
370
    35
100
AcDbSpline
210
0.0
220
0.0
230
1.0
 70
     0
 71
     3
 72
     8
 73
     4
 74
     0
 42
0.0000000001
 43
0.0000000001
 40
0.0
 40
0.0
 40
0.0
 40
0.0
 40
1.0
 40
1.0
 40
1.0
 40
1.0
 10
-54.194600000000001
 20
-48.091300000000004
 30
0.0
 10
-54.194600000000001
 20
-48.091300000000004
 30
0.0
 10
-54.107600000000005
 20
-48.004300000000001
 30
0.0
 10
-54.107600000000005
 20
-48.004300000000001
 30
0.0
  0
SPLINE
  5
135
100
AcDbEntity
  8
LC-004-005-----0
370
    35
100
AcDbSpline
210
0.0
220
0.0
230
1.0
 70
     0
 71
     3
 72
     8
 73
     4
 74
     0
 42
0.0000000001
 43
0.0000000001
 40
0.0
 40
0.0
 40
0.0
 40
0.0
 40
1.0
 40
1.0
 40
1.0
 40
1.0
 10
-53.808600000000006
 20
-47.705300000000001
 30
0.0
 10
-53.808600000000006
 20
-47.705300000000001
 30
0.0
 10
-53.335599999999999
 20
-47.232300000000002
 30
0.0
 10
-53.335599999999999
 20
-47.232300000000002
 30
0.0
  0
SPLINE
  5
136
100
AcDbEntity
  8
LC-004-005-----0
370
    35
100
AcDbSpline
210
0.0
220
0.0
230
1.0
 70
     0
 71
     3
 72
     8
 73
     4
 74
     0
 42
0.0000000001
 43
0.0000000001
 40
0.0
 40
0.0
 40
0.0
 40
0.0
 40
1.0
 40
1.0
 40
1.0
 40
1.0
 10
-54.331099999999999
 20
-48.091300000000004
 30
0.0
 10
-54.331099999999999
 20
-48.091300000000004
 30
0.0
 10
-54.107600000000005
 20
-47.867899999999999
 30
0.0
 10
-54.107600000000005
 20
-47.867899999999999
 30
0.0
  0
SPLINE
  5
137
100
AcDbEntity
  8
LC-004-005-----0
370
    35
100
AcDbSpline
210
0.0
220
0.0
230
1.0
 70
     0
 71
     3
 72
     8
 73
     4
 74
     0
 42
0.0000000001
 43
0.0000000001
 40
0.0
 40
0.0
 40
0.0
 40
0.0
 40
1.0
 40
1.0
 40
1.0
 40
1.0
 10
-53.945100000000004
 20
-47.705300000000001
 30
0.0
 10
-53.945100000000004
 20
-47.705300000000001
 30
0.0
 10
-53.335599999999999
 20
-47.0959
 30
0.0
 10
-53.335599999999999
 20
-47.0959
 30
0.0
  0
SPLINE
  5
138
100
AcDbEntity
  8
LC-004-005-----0
370
    35
100
AcDbSpline
210
0.0
220
0.0
230
1.0
 70
     0
 71
     3
 72
     8
 73
     4
 74
     0
 42
0.0000000001
 43
0.0000000001
 40
0.0
 40
0.0
 40
0.0
 40
0.0
 40
1.0
 40
1.0
 40
1.0
 40
1.0
 10
-54.467500000000001
 20
-48.091300000000004
 30
0.0
 10
-54.467500000000001
 20
-48.091300000000004
 30
0.0
 10
-54.107600000000005
 20
-47.731400000000001
 30
0.0
 10
-54.107600000000005
 20
-47.731400000000001
 30
0.0
  0
SPLINE
  5
139
100
AcDbEntity
  8
LC-004-005-----0
370
    35
100
AcDbSpline
210
0.0
220
0.0
230
1.0
 70
     0
 71
     3
 72
     8
 73
     4
 74
     0
 42
0.0000000001
 43
0.0000000001
 40
0.0
 40
0.0
 40
0.0
 40
0.0
 40
1.0
 40
1.0
 40
1.0
 40
1.0
 10
-54.081500000000005
 20
-47.705300000000001
 30
0.0
 10
-54.081500000000005
 20
-47.705300000000001
 30
0.0
 10
-53.335599999999999
 20
-46.959400000000002
 30
0.0
 10
-53.335599999999999
 20
-46.959400000000002
 30
0.0
  0
SPLINE
  5
13A
100
AcDbEntity
  8
LC-004-005-----0
370
    35
100
AcDbSpline
210
0.0
220
0.0
230
1.0
 70
     0
 71
     3
 72
     8
 73
     4
 74
     0
 42
0.0000000001
 43
0.0000000001
 40
0.0
 40
0.0
 40
0.0
 40
0.0
 40
1.0
 40
1.0
 40
1.0
 40
1.0
 10
-54.603999999999999
 20
-48.091300000000004
 30
0.0
 10
-54.603999999999999
 20
-48.091300000000004
 30
0.0
 10
-53.446000000000005
 20
-46.933300000000003
 30
0.0
 10
-53.446000000000005
 20
-46.933300000000003
 30
0.0
  0
SPLINE
  5
13B
100
AcDbEntity
  8
LC-004-005-----0
370
    35
100
AcDbSpline
210
0.0
220
0.0
230
1.0
 70
     0
 71
     3
 72
     8
 73
     4
 74
     0
 42
0.0000000001
 43
0.0000000001
 40
0.0
 40
0.0
 40
0.0
 40
0.0
 40
1.0
 40
1.0
 40
1.0
 40
1.0
 10
-54.740500000000004
 20
-48.091300000000004
 30
0.0
 10
-54.740500000000004
 20
-48.091300000000004
 30
0.0
 10
-53.582500000000003
 20
-46.933300000000003
 30
0.0
 10
-53.582500000000003
 20
-46.933300000000003
 30
0.0
  0
SPLINE
  5
13C
100
AcDbEntity
  8
LC-004-005-----0
370
    35
100
AcDbSpline
210
0.0
220
0.0
230
1.0
 70
     0
 71
     3
 72
     8
 73
     4
 74
     0
 42
0.0000000001
 43
0.0000000001
 40
0.0
 40
0.0
 40
0.0
 40
0.0
 40
1.0
 40
1.0
 40
1.0
 40
1.0
 10
-54.877000000000002
 20
-48.091300000000004
 30
0.0
 10
-54.877000000000002
 20
-48.091300000000004
 30
0.0
 10
-53.718900000000005
 20
-46.933300000000003
 30
0.0
 10
-53.718900000000005
 20
-46.933300000000003
 30
0.0
  0
SPLINE
  5
13D
100
AcDbEntity
  8
LC-004-005-----0
370
    35
100
AcDbSpline
210
0.0
220
0.0
230
1.0
 70
     0
 71
     3
 72
     8
 73
     4
 74
     0
 42
0.0000000001
 43
0.0000000001
 40
0.0
 40
0.0
 40
0.0
 40
0.0
 40
1.0
 40
1.0
 40
1.0
 40
1.0
 10
-55.013300000000001
 20
-48.091300000000004
 30
0.0
 10
-55.013300000000001
 20
-48.091300000000004
 30
0.0
 10
-53.8553
 20
-46.933300000000003
 30
0.0
 10
-53.8553
 20
-46.933300000000003
 30
0.0
  0
SPLINE
  5
13E
100
AcDbEntity
  8
LC-004-005-----0
370
    35
100
AcDbSpline
210
0.0
220
0.0
230
1.0
 70
     0
 71
     3
 72
     8
 73
     4
 74
     0
 42
0.0000000001
 43
0.0000000001
 40
0.0
 40
0.0
 40
0.0
 40
0.0
 40
1.0
 40
1.0
 40
1.0
 40
1.0
 10
-55.149800000000006
 20
-48.091300000000004
 30
0.0
 10
-55.149800000000006
 20
-48.091300000000004
 30
0.0
 10
-53.991800000000005
 20
-46.933300000000003
 30
0.0
 10
-53.991800000000005
 20
-46.933300000000003
 30
0.0
  0
SPLINE
  5
13F
100
AcDbEntity
  8
LC-004-005-----0
370
    35
100
AcDbSpline
210
0.0
220
0.0
230
1.0
 70
     0
 71
     3
 72
     8
 73
     4
 74
     0
 42
0.0000000001
 43
0.0000000001
 40
0.0
 40
0.0
 40
0.0
 40
0.0
 40
1.0
 40
1.0
 40
1.0
 40
1.0
 10
-55.286300000000004
 20
-48.091300000000004
 30
0.0
 10
-55.286300000000004
 20
-48.091300000000004
 30
0.0
 10
-54.128300000000003
 20
-46.933300000000003
 30
0.0
 10
-54.128300000000003
 20
-46.933300000000003
 30
0.0
  0
SPLINE
  5
140
100
AcDbEntity
  8
LC-004-005-----0
370
    35
100
AcDbSpline
210
0.0
220
0.0
230
1.0
 70
     0
 71
     3
 72
     8
 73
     4
 74
     0
 42
0.0000000001
 43
0.0000000001
 40
0.0
 40
0.0
 40
0.0
 40
0.0
 40
1.0
 40
1.0
 40
1.0
 40
1.0
 10
-55.422800000000002
 20
-48.091300000000004
 30
0.0
 10
-55.422800000000002
 20
-48.091300000000004
 30
0.0
 10
-54.264800000000001
 20
-46.933300000000003
 30
0.0
 10
-54.264800000000001
 20
-46.933300000000003
 30
0.0
  0
SPLINE
  5
141
100
AcDbEntity
  8
LC-004-005-----0
370
    35
100
AcDbSpline
210
0.0
220
0.0
230
1.0
 70
     0
 71
     3
 72
     8
 73
     4
 74
     0
 42
0.0000000001
 43
0.0000000001
 40
0.0
 40
0.0
 40
0.0
 40
0.0
 40
1.0
 40
1.0
 40
1.0
 40
1.0
 10
-55.5593
 20
-48.091300000000004
 30
0.0
 10
-55.5593
 20
-48.091300000000004
 30
0.0
 10
-54.401299999999999
 20
-46.933300000000003
 30
0.0
 10
-54.401299999999999
 20
-46.933300000000003
 30
0.0
  0
SPLINE
  5
142
100
AcDbEntity
  8
LC-004-005-----0
370
    35
100
AcDbSpline
210
0.0
220
0.0
230
1.0
 70
     0
 71
     3
 72
     8
 73
     4
 74
     0
 42
0.0000000001
 43
0.0000000001
 40
0.0
 40
0.0
 40
0.0
 40
0.0
 40
1.0
 40
1.0
 40
1.0
 40
1.0
 10
-55.695700000000002
 20
-48.091300000000004
 30
0.0
 10
-55.695700000000002
 20
-48.091300000000004
 30
0.0
 10
-54.472799999999999
 20
-46.868300000000005
 30
0.0
 10
-54.472799999999999
 20
-46.868300000000005
 30
0.0
  0
SPLINE
  5
143
100
AcDbEntity
  8
LC-004-005-----0
370
    35
100
AcDbSpline
210
0.0
220
0.0
230
1.0
 70
     0
 71
     3
 72
     8
 73
     4
 74
     0
 42
0.0000000001
 43
0.0000000001
 40
0.0
 40
0.0
 40
0.0
 40
0.0
 40
1.0
 40
1.0
 40
1.0
 40
1.0
 10
-55.8322
 20
-48.091300000000004
 30
0.0
 10
-55.8322
 20
-48.091300000000004
 30
0.0
 10
-54.408200000000001
 20
-46.667300000000004
 30
0.0
 10
-54.408200000000001
 20
-46.667300000000004
 30
0.0
  0
SPLINE
  5
144
100
AcDbEntity
  8
LC-004-005-----0
370
    35
100
AcDbSpline
210
0.0
220
0.0
230
1.0
 70
     0
 71
     3
 72
     8
 73
     4
 74
     0
 42
0.0000000001
 43
0.0000000001
 40
0.0
 40
0.0
 40
0.0
 40
0.0
 40
1.0
 40
1.0
 40
1.0
 40
1.0
 10
-55.968700000000005
 20
-48.091300000000004
 30
0.0
 10
-55.968700000000005
 20
-48.091300000000004
 30
0.0
 10
-54.361600000000003
 20
-46.484100000000005
 30
0.0
 10
-54.361600000000003
 20
-46.484100000000005
 30
0.0
  0
SPLINE
  5
145
100
AcDbEntity
  8
LC-004-005-----0
370
    35
100
AcDbSpline
210
0.0
220
0.0
230
1.0
 70
     0
 71
     3
 72
     8
 73
     4
 74
     0
 42
0.0000000001
 43
0.0000000001
 40
0.0
 40
0.0
 40
0.0
 40
0.0
 40
1.0
 40
1.0
 40
1.0
 40
1.0
 10
-56.105200000000004
 20
-48.091300000000004
 30
0.0
 10
-56.105200000000004
 20
-48.091300000000004
 30
0.0
 10
-54.395700000000005
 20
-46.381800000000005
 30
0.0
 10
-54.395700000000005
 20
-46.381800000000005
 30
0.0
  0
SPLINE
  5
146
100
AcDbEntity
  8
LC-004-005-----0
370
    35
100
AcDbSpline
210
0.0
220
0.0
230
1.0
 70
     0
 71
     3
 72
     8
 73
     4
 74
     0
 42
0.0000000001
 43
0.0000000001
 40
0.0
 40
0.0
 40
0.0
 40
0.0
 40
1.0
 40
1.0
 40
1.0
 40
1.0
 10
-56.241700000000002
 20
-48.091300000000004
 30
0.0
 10
-56.241700000000002
 20
-48.091300000000004
 30
0.0
 10
-54.468900000000005
 20
-46.3185
 30
0.0
 10
-54.468900000000005
 20
-46.3185
 30
0.0
  0
SPLINE
  5
147
100
AcDbEntity
  8
LC-004-005-----0
370
    35
100
AcDbSpline
210
0.0
220
0.0
230
1.0
 70
     0
 71
     3
 72
     8
 73
     4
 74
     0
 42
0.0000000001
 43
0.0000000001
 40
0.0
 40
0.0
 40
0.0
 40
0.0
 40
1.0
 40
1.0
 40
1.0
 40
1.0
 10
-56.378100000000003
 20
-48.091300000000004
 30
0.0
 10
-56.378100000000003
 20
-48.091300000000004
 30
0.0
 10
-54.588300000000004
 20
-46.301500000000004
 30
0.0
 10
-54.588300000000004
 20
-46.301500000000004
 30
0.0
  0
SPLINE
  5
148
100
AcDbEntity
  8
LC-004-005-----0
370
    35
100
AcDbSpline
210
0.0
220
0.0
230
1.0
 70
     0
 71
     3
 72
     8
 73
     4
 74
     0
 42
0.0000000001
 43
0.0000000001
 40
0.0
 40
0.0
 40
0.0
 40
0.0
 40
1.0
 40
1.0
 40
1.0
 40
1.0
 10
-56.4236
 20
-48.000300000000003
 30
0.0
 10
-56.4236
 20
-48.000300000000003
 30
0.0
 10
-54.793100000000003
 20
-46.369700000000002
 30
0.0
 10
-54.793100000000003
 20
-46.369700000000002
 30
0.0
  0
SPLINE
  5
149
100
AcDbEntity
  8
LC-004-005-----0
370
    35
100
AcDbSpline
210
0.0
220
0.0
230
1.0
 70
     0
 71
     3
 72
     8
 73
     4
 74
     0
 42
0.0000000001
 43
0.0000000001
 40
0.0
 40
0.0
 40
0.0
 40
0.0
 40
1.0
 40
1.0
 40
1.0
 40
1.0
 10
-56.4236
 20
-47.863800000000005
 30
0.0
 10
-56.4236
 20
-47.863800000000005
 30
0.0
 10
-55.001600000000003
 20
-46.441800000000001
 30
0.0
 10
-55.001600000000003
 20
-46.441800000000001
 30
0.0
  0
SPLINE
  5
14A
100
AcDbEntity
  8
LC-004-005-----0
370
    35
100
AcDbSpline
210
0.0
220
0.0
230
1.0
 70
     0
 71
     3
 72
     8
 73
     4
 74
     0
 42
0.0000000001
 43
0.0000000001
 40
0.0
 40
0.0
 40
0.0
 40
0.0
 40
1.0
 40
1.0
 40
1.0
 40
1.0
 10
-56.4236
 20
-47.727400000000003
 30
0.0
 10
-56.4236
 20
-47.727400000000003
 30
0.0
 10
-55.2102
 20
-46.513800000000003
 30
0.0
 10
-55.2102
 20
-46.513800000000003
 30
0.0
  0
SPLINE
  5
14B
100
AcDbEntity
  8
LC-004-005-----0
370
    35
100
AcDbSpline
210
0.0
220
0.0
230
1.0
 70
     0
 71
     3
 72
     8
 73
     4
 74
     0
 42
0.0000000001
 43
0.0000000001
 40
0.0
 40
0.0
 40
0.0
 40
0.0
 40
1.0
 40
1.0
 40
1.0
 40
1.0
 10
-56.4236
 20
-47.591000000000001
 30
0.0
 10
-56.4236
 20
-47.591000000000001
 30
0.0
 10
-55.418700000000001
 20
-46.585900000000002
 30
0.0
 10
-55.418700000000001
 20
-46.585900000000002
 30
0.0
  0
SPLINE
  5
14C
100
AcDbEntity
  8
LC-004-005-----0
370
    35
100
AcDbSpline
210
0.0
220
0.0
230
1.0
 70
     0
 71
     3
 72
     8
 73
     4
 74
     0
 42
0.0000000001
 43
0.0000000001
 40
0.0
 40
0.0
 40
0.0
 40
0.0
 40
1.0
 40
1.0
 40
1.0
 40
1.0
 10
-56.4236
 20
-47.454500000000003
 30
0.0
 10
-56.4236
 20
-47.454500000000003
 30
0.0
 10
-55.627300000000005
 20
-46.658000000000001
 30
0.0
 10
-55.627300000000005
 20
-46.658000000000001
 30
0.0
  0
SPLINE
  5
14D
100
AcDbEntity
  8
LC-004-005-----0
370
    35
100
AcDbSpline
210
0.0
220
0.0
230
1.0
 70
     0
 71
     3
 72
     8
 73
     4
 74
     0
 42
0.0000000001
 43
0.0000000001
 40
0.0
 40
0.0
 40
0.0
 40
0.0
 40
1.0
 40
1.0
 40
1.0
 40
1.0
 10
-56.4236
 20
-47.318000000000005
 30
0.0
 10
-56.4236
 20
-47.318000000000005
 30
0.0
 10
-55.835800000000006
 20
-46.7301
 30
0.0
 10
-55.835800000000006
 20
-46.7301
 30
0.0
  0
SPLINE
  5
14E
100
AcDbEntity
  8
LC-004-005-----0
370
    35
100
AcDbSpline
210
0.0
220
0.0
230
1.0
 70
     0
 71
     3
 72
     8
 73
     4
 74
     0
 42
0.0000000001
 43
0.0000000001
 40
0.0
 40
0.0
 40
0.0
 40
0.0
 40
1.0
 40
1.0
 40
1.0
 40
1.0
 10
-56.4236
 20
-47.1815
 30
0.0
 10
-56.4236
 20
-47.1815
 30
0.0
 10
-56.044400000000003
 20
-46.802100000000003
 30
0.0
 10
-56.044400000000003
 20
-46.802100000000003
 30
0.0
  0
SPLINE
  5
14F
100
AcDbEntity
  8
LC-004-005-----0
370
    35
100
AcDbSpline
210
0.0
220
0.0
230
1.0
 70
     0
 71
     3
 72
     8
 73
     4
 74
     0
 42
0.0000000001
 43
0.0000000001
 40
0.0
 40
0.0
 40
0.0
 40
0.0
 40
1.0
 40
1.0
 40
1.0
 40
1.0
 10
-56.4236
 20
-47.045000000000002
 30
0.0
 10
-56.4236
 20
-47.045000000000002
 30
0.0
 10
-56.252800000000001
 20
-46.874200000000002
 30
0.0
 10
-56.252800000000001
 20
-46.874200000000002
 30
0.0
  0
SPLINE
  5
150
100
AcDbEntity
  8
LC-004-005-----0
370
    20
100
AcDbSpline
210
0.0
220
0.0
230
1.0
 70
     0
 71
     3
 72
     8
 73
     4
 74
     0
 42
0.0000000001
 43
0.0000000001
 40
0.0
 40
0.0
 40
0.0
 40
0.0
 40
1.0
 40
1.0
 40
1.0
 40
1.0
 10
-58.739700000000006
 20
-16.3733
 30
0.0
 10
-58.739700000000006
 20
-16.3733
 30
0.0
 10
-57.805
 20
-17.308
 30
0.0
 10
-57.805
 20
-17.308
 30
0.0
  0
SPLINE
  5
151
100
AcDbEntity
  8
LC-004-005-----0
370
    20
100
AcDbSpline
210
0.0
220
0.0
230
1.0
 70
     0
 71
     3
 72
     8
 73
     4
 74
     0
 42
0.0000000001
 43
0.0000000001
 40
0.0
 40
0.0
 40
0.0
 40
0.0
 40
1.0
 40
1.0
 40
1.0
 40
1.0
 10
-57.575500000000005
 20
-15.354000000000001
 30
0.0
 10
-57.575500000000005
 20
-15.354000000000001
 30
0.0
 10
-56.4238
 20
-16.505800000000001
 30
0.0
 10
-56.4238
 20
-16.505800000000001
 30
0.0
  0
SPLINE
  5
152
100
AcDbEntity
  8
LC-004-005-----0
370
    20
100
AcDbSpline
210
0.0
220
0.0
230
1.0
 70
     0
 71
     3
 72
     8
 73
     4
 74
     0
 42
0.0000000001
 43
0.0000000001
 40
0.0
 40
0.0
 40
0.0
 40
0.0
 40
1.0
 40
1.0
 40
1.0
 40
1.0
 10
-56.429400000000001
 20
-14.316500000000001
 30
0.0
 10
-56.429400000000001
 20
-14.316500000000001
 30
0.0
 10
-55.2714
 20
-15.474500000000001
 30
0.0
 10
-55.2714
 20
-15.474500000000001
 30
0.0
  0
SPLINE
  5
153
100
AcDbEntity
  8
LC-004-005-----0
370
    20
100
AcDbSpline
210
0.0
220
0.0
230
1.0
 70
     0
 71
     3
 72
     8
 73
     4
 74
     0
 42
0.0000000001
 43
0.0000000001
 40
0.0
 40
0.0
 40
0.0
 40
0.0
 40
1.0
 40
1.0
 40
1.0
 40
1.0
 10
-54.246000000000002
 20
-14.316500000000001
 30
0.0
 10
-54.246000000000002
 20
-14.316500000000001
 30
0.0
 10
-51.254400000000004
 20
-17.308
 30
0.0
 10
-51.254400000000004
 20
-17.308
 30
0.0
  0
SPLINE
  5
154
100
AcDbEntity
  8
LC-004-005-----0
370
    20
100
AcDbSpline
210
0.0
220
0.0
230
1.0
 70
     0
 71
     3
 72
     8
 73
     4
 74
     0
 42
0.0000000001
 43
0.0000000001
 40
0.0
 40
0.0
 40
0.0
 40
0.0
 40
1.0
 40
1.0
 40
1.0
 40
1.0
 10
-50.228900000000003
 20
-16.150100000000002
 30
0.0
 10
-50.228900000000003
 20
-16.150100000000002
 30
0.0
 10
-49.070900000000002
 20
-17.308
 30
0.0
 10
-49.070900000000002
 20
-17.308
 30
0.0
  0
SPLINE
  5
155
100
AcDbEntity
  8
LC-004-005-----0
370
    20
100
AcDbSpline
210
0.0
220
0.0
230
1.0
 70
     0
 71
     3
 72
     8
 73
     4
 74
     0
 42
0.0000000001
 43
0.0000000001
 40
0.0
 40
0.0
 40
0.0
 40
0.0
 40
1.0
 40
1.0
 40
1.0
 40
1.0
 10
-48.045400000000001
 20
-16.150100000000002
 30
0.0
 10
-48.045400000000001
 20
-16.150100000000002
 30
0.0
 10
-46.8874
 20
-17.3079
 30
0.0
 10
-46.8874
 20
-17.3079
 30
0.0
  0
SPLINE
  5
156
100
AcDbEntity
  8
LC-004-005-----0
370
    20
100
AcDbSpline
210
0.0
220
0.0
230
1.0
 70
     0
 71
     3
 72
     8
 73
     4
 74
     0
 42
0.0000000001
 43
0.0000000001
 40
0.0
 40
0.0
 40
0.0
 40
0.0
 40
1.0
 40
1.0
 40
1.0
 40
1.0
 10
-45.861800000000002
 20
-16.149900000000002
 30
0.0
 10
-45.861800000000002
 20
-16.149900000000002
 30
0.0
 10
-44.703800000000001
 20
-17.3079
 30
0.0
 10
-44.703800000000001
 20
-17.3079
 30
0.0
  0
SPLINE
  5
157
100
AcDbEntity
  8
LC-004-005-----0
370
    20
100
AcDbSpline
210
0.0
220
0.0
230
1.0
 70
     0
 71
     3
 72
     8
 73
     4
 74
     0
 42
0.0000000001
 43
0.0000000001
 40
0.0
 40
0.0
 40
0.0
 40
0.0
 40
1.0
 40
1.0
 40
1.0
 40
1.0
 10
-43.678200000000004
 20
-16.149900000000002
 30
0.0
 10
-43.678200000000004
 20
-16.149900000000002
 30
0.0
 10
-42.520400000000002
 20
-17.3079
 30
0.0
 10
-42.520400000000002
 20
-17.3079
 30
0.0
  0
SPLINE
  5
158
100
AcDbEntity
  8
LC-004-005-----0
370
    20
100
AcDbSpline
210
0.0
220
0.0
230
1.0
 70
     0
 71
     3
 72
     8
 73
     4
 74
     0
 42
0.0000000001
 43
0.0000000001
 40
0.0
 40
0.0
 40
0.0
 40
0.0
 40
1.0
 40
1.0
 40
1.0
 40
1.0
 10
-41.494800000000005
 20
-16.149900000000002
 30
0.0
 10
-41.494800000000005
 20
-16.149900000000002
 30
0.0
 10
-40.336800000000004
 20
-17.3079
 30
0.0
 10
-40.336800000000004
 20
-17.3079
 30
0.0
  0
SPLINE
  5
159
100
AcDbEntity
  8
LC-004-005-----0
370
    20
100
AcDbSpline
210
0.0
220
0.0
230
1.0
 70
     0
 71
     3
 72
     8
 73
     4
 74
     0
 42
0.0000000001
 43
0.0000000001
 40
0.0
 40
0.0
 40
0.0
 40
0.0
 40
1.0
 40
1.0
 40
1.0
 40
1.0
 10
-39.311199999999999
 20
-16.149900000000002
 30
0.0
 10
-39.311199999999999
 20
-16.149900000000002
 30
0.0
 10
-38.153200000000005
 20
-17.3079
 30
0.0
 10
-38.153200000000005
 20
-17.3079
 30
0.0
  0
SPLINE
  5
15A
100
AcDbEntity
  8
LC-004-005-----0
370
    20
100
AcDbSpline
210
0.0
220
0.0
230
1.0
 70
     0
 71
     3
 72
     8
 73
     4
 74
     0
 42
0.0000000001
 43
0.0000000001
 40
0.0
 40
0.0
 40
0.0
 40
0.0
 40
1.0
 40
1.0
 40
1.0
 40
1.0
 10
-37.127700000000004
 20
-16.149900000000002
 30
0.0
 10
-37.127700000000004
 20
-16.149900000000002
 30
0.0
 10
-35.969799999999999
 20
-17.3079
 30
0.0
 10
-35.969799999999999
 20
-17.3079
 30
0.0
  0
SPLINE
  5
15B
100
AcDbEntity
  8
LC-004-005-----0
370
    20
100
AcDbSpline
210
0.0
220
0.0
230
1.0
 70
     0
 71
     3
 72
     8
 73
     4
 74
     0
 42
0.0000000001
 43
0.0000000001
 40
0.0
 40
0.0
 40
0.0
 40
0.0
 40
1.0
 40
1.0
 40
1.0
 40
1.0
 10
-34.866900000000001
 20
-16.2272
 30
0.0
 10
-34.866900000000001
 20
-16.2272
 30
0.0
 10
-33.269500000000001
 20
-17.8247
 30
0.0
 10
-33.269500000000001
 20
-17.8247
 30
0.0
  0
SPLINE
  5
15C
100
AcDbEntity
  8
LC-004-005-----0
370
    20
100
AcDbSpline
210
0.0
220
0.0
230
1.0
 70
     0
 71
     3
 72
     8
 73
     4
 74
     0
 42
0.0000000001
 43
0.0000000001
 40
0.0
 40
0.0
 40
0.0
 40
0.0
 40
1.0
 40
1.0
 40
1.0
 40
1.0
 10
-31.9497
 20
-16.960800000000003
 30
0.0
 10
-31.9497
 20
-16.960800000000003
 30
0.0
 10
-31.0426
 20
-17.868000000000002
 30
0.0
 10
-31.0426
 20
-17.868000000000002
 30
0.0
  0
SPLINE
  5
15D
100
AcDbEntity
  8
LC-004-005-----0
370
    20
100
AcDbSpline
210
0.0
220
0.0
230
1.0
 70
     0
 71
     3
 72
     8
 73
     4
 74
     0
 42
0.0000000001
 43
0.0000000001
 40
0.0
 40
0.0
 40
0.0
 40
0.0
 40
1.0
 40
1.0
 40
1.0
 40
1.0
 10
-31.058200000000003
 20
-15.668900000000001
 30
0.0
 10
-31.058200000000003
 20
-15.668900000000001
 30
0.0
 10
-30.215600000000002
 20
-16.511400000000002
 30
0.0
 10
-30.215600000000002
 20
-16.511400000000002
 30
0.0
  0
SPLINE
  5
15E
100
AcDbEntity
  8
LC-004-005-----0
370
    20
100
AcDbSpline
210
0.0
220
0.0
230
1.0
 70
     0
 71
     3
 72
     8
 73
     4
 74
     0
 42
0.0000000001
 43
0.0000000001
 40
0.0
 40
0.0
 40
0.0
 40
0.0
 40
1.0
 40
1.0
 40
1.0
 40
1.0
 10
-30.231100000000001
 20
-14.3124
 30
0.0
 10
-30.231100000000001
 20
-14.3124
 30
0.0
 10
-29.388500000000001
 20
-15.155000000000001
 30
0.0
 10
-29.388500000000001
 20
-15.155000000000001
 30
0.0
  0
SPLINE
  5
15F
100
AcDbEntity
  8
LC-004-005-----0
370
    20
100
AcDbSpline
210
0.0
220
0.0
230
1.0
 70
     0
 71
     3
 72
     8
 73
     4
 74
     0
 42
0.0000000001
 43
0.0000000001
 40
0.0
 40
0.0
 40
0.0
 40
0.0
 40
1.0
 40
1.0
 40
1.0
 40
1.0
 10
-29.4041
 20
-12.9559
 30
0.0
 10
-29.4041
 20
-12.9559
 30
0.0
 10
-28.561500000000002
 20
-13.798400000000001
 30
0.0
 10
-28.561500000000002
 20
-13.798400000000001
 30
0.0
  0
SPLINE
  5
160
100
AcDbEntity
  8
LC-004-005-----0
370
    20
100
AcDbSpline
210
0.0
220
0.0
230
1.0
 70
     0
 71
     3
 72
     8
 73
     4
 74
     0
 42
0.0000000001
 43
0.0000000001
 40
0.0
 40
0.0
 40
0.0
 40
0.0
 40
1.0
 40
1.0
 40
1.0
 40
1.0
 10
-28.577000000000002
 20
-11.599400000000001
 30
0.0
 10
-28.577000000000002
 20
-11.599400000000001
 30
0.0
 10
-27.734500000000001
 20
-12.442
 30
0.0
 10
-27.734500000000001
 20
-12.442
 30
0.0
  0
SPLINE
  5
161
100
AcDbEntity
  8
LC-004-005-----0
370
    20
100
AcDbSpline
210
0.0
220
0.0
230
1.0
 70
     0
 71
     3
 72
     8
 73
     4
 74
     0
 42
0.0000000001
 43
0.0000000001
 40
0.0
 40
0.0
 40
0.0
 40
0.0
 40
1.0
 40
1.0
 40
1.0
 40
1.0
 10
-27.7499
 20
-10.242900000000001
 30
0.0
 10
-27.7499
 20
-10.242900000000001
 30
0.0
 10
-26.907500000000002
 20
-11.0854
 30
0.0
 10
-26.907500000000002
 20
-11.0854
 30
0.0
  0
SPLINE
  5
162
100
AcDbEntity
  8
LC-004-005-----0
370
    20
100
AcDbSpline
210
0.0
220
0.0
230
1.0
 70
     0
 71
     3
 72
     8
 73
     4
 74
     0
 42
0.0000000001
 43
0.0000000001
 40
0.0
 40
0.0
 40
0.0
 40
0.0
 40
1.0
 40
1.0
 40
1.0
 40
1.0
 10
-26.922900000000002
 20
-8.8864000000000001
 30
0.0
 10
-26.922900000000002
 20
-8.8864000000000001
 30
0.0
 10
-26.080400000000001
 20
-9.729000000000001
 30
0.0
 10
-26.080400000000001
 20
-9.729000000000001
 30
0.0
  0
SPLINE
  5
163
100
AcDbEntity
  8
LC-004-005-----0
370
    20
100
AcDbSpline
210
0.0
220
0.0
230
1.0
 70
     0
 71
     3
 72
     8
 73
     4
 74
     0
 42
0.0000000001
 43
0.0000000001
 40
0.0
 40
0.0
 40
0.0
 40
0.0
 40
1.0
 40
1.0
 40
1.0
 40
1.0
 10
-26.523300000000003
 20
-7.1025
 30
0.0
 10
-26.523300000000003
 20
-7.1025
 30
0.0
 10
-25.253300000000003
 20
-8.3725000000000005
 30
0.0
 10
-25.253300000000003
 20
-8.3725000000000005
 30
0.0
  0
SPLINE
  5
164
100
AcDbEntity
  8
LC-004-005-----0
370
    20
100
AcDbSpline
210
0.0
220
0.0
230
1.0
 70
     0
 71
     3
 72
     8
 73
     4
 74
     0
 42
0.0000000001
 43
0.0000000001
 40
0.0
 40
0.0
 40
0.0
 40
0.0
 40
1.0
 40
1.0
 40
1.0
 40
1.0
 10
-26.516300000000001
 20
-4.9260000000000002
 30
0.0
 10
-26.516300000000001
 20
-4.9260000000000002
 30
0.0
 10
-25.1706
 20
-6.2716000000000003
 30
0.0
 10
-25.1706
 20
-6.2716000000000003
 30
0.0
  0
SPLINE
  5
165
100
AcDbEntity
  8
LC-004-005-----0
370
    20
100
AcDbSpline
210
0.0
220
0.0
230
1.0
 70
     0
 71
     3
 72
     8
 73
     4
 74
     0
 42
0.0000000001
 43
0.0000000001
 40
0.0
 40
0.0
 40
0.0
 40
0.0
 40
1.0
 40
1.0
 40
1.0
 40
1.0
 10
-26.5092
 20
-2.7495000000000003
 30
0.0
 10
-26.5092
 20
-2.7495000000000003
 30
0.0
 10
-25.1707
 20
-4.0880999999999998
 30
0.0
 10
-25.1707
 20
-4.0880999999999998
 30
0.0
  0
SPLINE
  5
166
100
AcDbEntity
  8
LC-004-005-----0
370
    20
100
AcDbSpline
210
0.0
220
0.0
230
1.0
 70
     0
 71
     3
 72
     8
 73
     4
 74
     0
 42
0.0000000001
 43
0.0000000001
 40
0.0
 40
0.0
 40
0.0
 40
0.0
 40
1.0
 40
1.0
 40
1.0
 40
1.0
 10
-25.7653
 20
-1.3100000000000001
 30
0.0
 10
-25.7653
 20
-1.3100000000000001
 30
0.0
 10
-24.6966
 20
-2.3785000000000003
 30
0.0
 10
-24.6966
 20
-2.3785000000000003
 30
0.0
  0
SPLINE
  5
167
100
AcDbEntity
  8
LC-004-005-----0
370
    20
100
AcDbSpline
210
0.0
220
0.0
230
1.0
 70
     0
 71
     3
 72
     8
 73
     4
 74
     0
 42
0.0000000001
 43
0.0000000001
 40
0.0
 40
0.0
 40
0.0
 40
0.0
 40
1.0
 40
1.0
 40
1.0
 40
1.0
 10
-23.805300000000003
 20
-1.0864
 30
0.0
 10
-23.805300000000003
 20
-1.0864
 30
0.0
 10
-22.647300000000001
 20
-2.2443
 30
0.0
 10
-22.647300000000001
 20
-2.2443
 30
0.0
  0
SPLINE
  5
168
100
AcDbEntity
  8
LC-004-005-----0
370
    20
100
AcDbSpline
210
0.0
220
0.0
230
1.0
 70
     0
 71
     3
 72
     8
 73
     4
 74
     0
 42
0.0000000001
 43
0.0000000001
 40
0.0
 40
0.0
 40
0.0
 40
0.0
 40
1.0
 40
1.0
 40
1.0
 40
1.0
 10
-21.6219
 20
-1.0862000000000001
 30
0.0
 10
-21.6219
 20
-1.0862000000000001
 30
0.0
 10
-20.463900000000002
 20
-2.2443
 30
0.0
 10
-20.463900000000002
 20
-2.2443
 30
0.0
  0
SPLINE
  5
169
100
AcDbEntity
  8
LC-004-005-----0
370
    20
100
AcDbSpline
210
0.0
220
0.0
230
1.0
 70
     0
 71
     3
 72
     8
 73
     4
 74
     0
 42
0.0000000001
 43
0.0000000001
 40
0.0
 40
0.0
 40
0.0
 40
0.0
 40
1.0
 40
1.0
 40
1.0
 40
1.0
 10
-19.438300000000002
 20
-1.0862000000000001
 30
0.0
 10
-19.438300000000002
 20
-1.0862000000000001
 30
0.0
 10
-18.2803
 20
-2.2443
 30
0.0
 10
-18.2803
 20
-2.2443
 30
0.0
  0
SPLINE
  5
16A
100
AcDbEntity
  8
LC-004-005-----0
370
    20
100
AcDbSpline
210
0.0
220
0.0
230
1.0
 70
     0
 71
     3
 72
     8
 73
     4
 74
     0
 42
0.0000000001
 43
0.0000000001
 40
0.0
 40
0.0
 40
0.0
 40
0.0
 40
1.0
 40
1.0
 40
1.0
 40
1.0
 10
-17.2547
 20
-1.0862000000000001
 30
0.0
 10
-17.2547
 20
-1.0862000000000001
 30
0.0
 10
-16.096700000000002
 20
-2.2442000000000002
 30
0.0
 10
-16.096700000000002
 20
-2.2442000000000002
 30
0.0
  0
SPLINE
  5
16B
100
AcDbEntity
  8
LC-004-005-----0
370
    20
100
AcDbSpline
210
0.0
220
0.0
230
1.0
 70
     0
 71
     3
 72
     8
 73
     4
 74
     0
 42
0.0000000001
 43
0.0000000001
 40
0.0
 40
0.0
 40
0.0
 40
0.0
 40
1.0
 40
1.0
 40
1.0
 40
1.0
 10
-15.071300000000001
 20
-1.0862000000000001
 30
0.0
 10
-15.071300000000001
 20
-1.0862000000000001
 30
0.0
 10
-13.913300000000001
 20
-2.2442000000000002
 30
0.0
 10
-13.913300000000001
 20
-2.2442000000000002
 30
0.0
  0
SPLINE
  5
16C
100
AcDbEntity
  8
LC-004-005-----0
370
    20
100
AcDbSpline
210
0.0
220
0.0
230
1.0
 70
     0
 71
     3
 72
     8
 73
     4
 74
     0
 42
0.0000000001
 43
0.0000000001
 40
0.0
 40
0.0
 40
0.0
 40
0.0
 40
1.0
 40
1.0
 40
1.0
 40
1.0
 10
-12.887700000000001
 20
-1.0862000000000001
 30
0.0
 10
-12.887700000000001
 20
-1.0862000000000001
 30
0.0
 10
-11.729700000000001
 20
-2.2442000000000002
 30
0.0
 10
-11.729700000000001
 20
-2.2442000000000002
 30
0.0
  0
SPLINE
  5
16D
100
AcDbEntity
  8
LC-004-005-----0
370
    20
100
AcDbSpline
210
0.0
220
0.0
230
1.0
 70
     0
 71
     3
 72
     8
 73
     4
 74
     0
 42
0.0000000001
 43
0.0000000001
 40
0.0
 40
0.0
 40
0.0
 40
0.0
 40
1.0
 40
1.0
 40
1.0
 40
1.0
 10
-10.7041
 20
-1.0862000000000001
 30
0.0
 10
-10.7041
 20
-1.0862000000000001
 30
0.0
 10
-9.5461000000000009
 20
-2.2442000000000002
 30
0.0
 10
-9.5461000000000009
 20
-2.2442000000000002
 30
0.0
  0
SPLINE
  5
16E
100
AcDbEntity
  8
LC-004-005-----0
370
    20
100
AcDbSpline
210
0.0
220
0.0
230
1.0
 70
     0
 71
     3
 72
     8
 73
     4
 74
     0
 42
0.0000000001
 43
0.0000000001
 40
0.0
 40
0.0
 40
0.0
 40
0.0
 40
1.0
 40
1.0
 40
1.0
 40
1.0
 10
-8.5206
 20
-1.0862000000000001
 30
0.0
 10
-8.5206
 20
-1.0862000000000001
 30
0.0
 10
-7.3627000000000002
 20
-2.2442000000000002
 30
0.0
 10
-7.3627000000000002
 20
-2.2442000000000002
 30
0.0
  0
SPLINE
  5
16F
100
AcDbEntity
  8
LC-004-005-----0
370
    20
100
AcDbSpline
210
0.0
220
0.0
230
1.0
 70
     0
 71
     3
 72
     8
 73
     4
 74
     0
 42
0.0000000001
 43
0.0000000001
 40
0.0
 40
0.0
 40
0.0
 40
0.0
 40
1.0
 40
1.0
 40
1.0
 40
1.0
 10
-6.3372000000000002
 20
-1.0862000000000001
 30
0.0
 10
-6.3372000000000002
 20
-1.0862000000000001
 30
0.0
 10
-5.5885000000000007
 20
-1.8349000000000002
 30
0.0
 10
-5.5885000000000007
 20
-1.8349000000000002
 30
0.0
  0
SPLINE
  5
170
100
AcDbEntity
  8
LC-004-005-----0
370
    35
100
AcDbSpline
210
0.0
220
0.0
230
1.0
 70
     0
 71
     3
 72
     8
 73
     4
 74
     0
 42
0.0000000001
 43
0.0000000001
 40
0.0
 40
0.0
 40
0.0
 40
0.0
 40
1.0
 40
1.0
 40
1.0
 40
1.0
 10
-58.739600000000003
 20
-46.942900000000002
 30
0.0
 10
-58.739600000000003
 20
-46.942900000000002
 30
0.0
 10
-58.2667
 20
-47.415700000000001
 30
0.0
 10
-58.2667
 20
-47.415700000000001
 30
0.0
  0
SPLINE
  5
171
100
AcDbEntity
  8
LC-004-005-----0
370
    35
100
AcDbSpline
210
0.0
220
0.0
230
1.0
 70
     0
 71
     3
 72
     8
 73
     4
 74
     0
 42
0.0000000001
 43
0.0000000001
 40
0.0
 40
0.0
 40
0.0
 40
0.0
 40
1.0
 40
1.0
 40
1.0
 40
1.0
 10
-57.581600000000002
 20
-48.100900000000003
 30
0.0
 10
-57.581600000000002
 20
-48.100900000000003
 30
0.0
 10
-56.433300000000003
 20
-49.249300000000005
 30
0.0
 10
-56.433300000000003
 20
-49.249300000000005
 30
0.0
  0
SPLINE
  5
172
100
AcDbEntity
  8
LC-004-005-----0
370
    35
100
AcDbSpline
210
0.0
220
0.0
230
1.0
 70
     0
 71
     3
 72
     8
 73
     4
 74
     0
 42
0.0000000001
 43
0.0000000001
 40
0.0
 40
0.0
 40
0.0
 40
0.0
 40
1.0
 40
1.0
 40
1.0
 40
1.0
 10
-57.241100000000003
 20
-46.257800000000003
 30
0.0
 10
-57.241100000000003
 20
-46.257800000000003
 30
0.0
 10
-56.4236
 20
-47.075300000000006
 30
0.0
 10
-56.4236
 20
-47.075300000000006
 30
0.0
  0
SPLINE
  5
173
100
AcDbEntity
  8
LC-004-005-----0
370
    35
100
AcDbSpline
210
0.0
220
0.0
230
1.0
 70
     0
 71
     3
 72
     8
 73
     4
 74
     0
 42
0.0000000001
 43
0.0000000001
 40
0.0
 40
0.0
 40
0.0
 40
0.0
 40
1.0
 40
1.0
 40
1.0
 40
1.0
 10
-55.407700000000006
 20
-48.091300000000004
 30
0.0
 10
-55.407700000000006
 20
-48.091300000000004
 30
0.0
 10
-54.249700000000004
 20
-49.249300000000005
 30
0.0
 10
-54.249700000000004
 20
-49.249300000000005
 30
0.0
  0
SPLINE
  5
174
100
AcDbEntity
  8
LC-004-005-----0
370
    35
100
AcDbSpline
210
0.0
220
0.0
230
1.0
 70
     0
 71
     3
 72
     8
 73
     4
 74
     0
 42
0.0000000001
 43
0.0000000001
 40
0.0
 40
0.0
 40
0.0
 40
0.0
 40
1.0
 40
1.0
 40
1.0
 40
1.0
 10
-53.335599999999999
 20
-47.979700000000001
 30
0.0
 10
-53.335599999999999
 20
-47.979700000000001
 30
0.0
 10
-52.462900000000005
 20
-48.852499999999999
 30
0.0
 10
-52.462900000000005
 20
-48.852499999999999
 30
0.0
  0
SPLINE
  5
175
100
AcDbEntity
  8
LC-004-005-----0
370
    35
100
AcDbSpline
210
0.0
220
0.0
230
1.0
 70
     0
 71
     3
 72
     8
 73
     4
 74
     0
 42
0.0000000001
 43
0.0000000001
 40
0.0
 40
0.0
 40
0.0
 40
0.0
 40
1.0
 40
1.0
 40
1.0
 40
1.0
 10
-52.874100000000006
 20
-46.257800000000003
 30
0.0
 10
-52.874100000000006
 20
-46.257800000000003
 30
0.0
 10
-51.716100000000004
 20
-47.415800000000004
 30
0.0
 10
-51.716100000000004
 20
-47.415800000000004
 30
0.0
  0
SPLINE
  5
176
100
AcDbEntity
  8
LC-004-005-----0
370
    35
100
AcDbSpline
210
0.0
220
0.0
230
1.0
 70
     0
 71
     3
 72
     8
 73
     4
 74
     0
 42
0.0000000001
 43
0.0000000001
 40
0.0
 40
0.0
 40
0.0
 40
0.0
 40
1.0
 40
1.0
 40
1.0
 40
1.0
 10
-50.6905
 20
-46.257800000000003
 30
0.0
 10
-50.6905
 20
-46.257800000000003
 30
0.0
 10
-49.531800000000004
 20
-47.416400000000003
 30
0.0
 10
-49.531800000000004
 20
-47.416400000000003
 30
0.0
  0
SPLINE
  5
177
100
AcDbEntity
  8
LC-004-005-----0
370
    35
100
AcDbSpline
210
0.0
220
0.0
230
1.0
 70
     0
 71
     3
 72
     8
 73
     4
 74
     0
 42
0.0000000001
 43
0.0000000001
 40
0.0
 40
0.0
 40
0.0
 40
0.0
 40
1.0
 40
1.0
 40
1.0
 40
1.0
 10
-48.507100000000001
 20
-46.257800000000003
 30
0.0
 10
-48.507100000000001
 20
-46.257800000000003
 30
0.0
 10
-47.347700000000003
 20
-47.417100000000005
 30
0.0
 10
-47.347700000000003
 20
-47.417100000000005
 30
0.0
  0
SPLINE
  5
178
100
AcDbEntity
  8
LC-004-005-----0
370
    35
100
AcDbSpline
210
0.0
220
0.0
230
1.0
 70
     0
 71
     3
 72
     8
 73
     4
 74
     0
 42
0.0000000001
 43
0.0000000001
 40
0.0
 40
0.0
 40
0.0
 40
0.0
 40
1.0
 40
1.0
 40
1.0
 40
1.0
 10
-46.323500000000003
 20
-46.2577
 30
0.0
 10
-46.323500000000003
 20
-46.2577
 30
0.0
 10
-45.163499999999999
 20
-47.417700000000004
 30
0.0
 10
-45.163499999999999
 20
-47.417700000000004
 30
0.0
  0
SPLINE
  5
179
100
AcDbEntity
  8
LC-004-005-----0
370
    35
100
AcDbSpline
210
0.0
220
0.0
230
1.0
 70
     0
 71
     3
 72
     8
 73
     4
 74
     0
 42
0.0000000001
 43
0.0000000001
 40
0.0
 40
0.0
 40
0.0
 40
0.0
 40
1.0
 40
1.0
 40
1.0
 40
1.0
 10
-44.139900000000004
 20
-46.2577
 30
0.0
 10
-44.139900000000004
 20
-46.2577
 30
0.0
 10
-42.979400000000005
 20
-47.418400000000005
 30
0.0
 10
-42.979400000000005
 20
-47.418400000000005
 30
0.0
  0
SPLINE
  5
17A
100
AcDbEntity
  8
LC-004-005-----0
370
    35
100
AcDbSpline
210
0.0
220
0.0
230
1.0
 70
     0
 71
     3
 72
     8
 73
     4
 74
     0
 42
0.0000000001
 43
0.0000000001
 40
0.0
 40
0.0
 40
0.0
 40
0.0
 40
1.0
 40
1.0
 40
1.0
 40
1.0
 10
-41.956500000000005
 20
-46.2577
 30
0.0
 10
-41.956500000000005
 20
-46.2577
 30
0.0
 10
-40.795200000000001
 20
-47.419000000000004
 30
0.0
 10
-40.795200000000001
 20
-47.419000000000004
 30
0.0
  0
SPLINE
  5
17B
100
AcDbEntity
  8
LC-004-005-----0
370
    35
100
AcDbSpline
210
0.0
220
0.0
230
1.0
 70
     0
 71
     3
 72
     8
 73
     4
 74
     0
 42
0.0000000001
 43
0.0000000001
 40
0.0
 40
0.0
 40
0.0
 40
0.0
 40
1.0
 40
1.0
 40
1.0
 40
1.0
 10
-39.7729
 20
-46.2577
 30
0.0
 10
-39.7729
 20
-46.2577
 30
0.0
 10
-38.611000000000004
 20
-47.419699999999999
 30
0.0
 10
-38.611000000000004
 20
-47.419699999999999
 30
0.0
  0
SPLINE
  5
17C
100
AcDbEntity
  8
LC-004-005-----0
370
    35
100
AcDbSpline
210
0.0
220
0.0
230
1.0
 70
     0
 71
     3
 72
     8
 73
     4
 74
     0
 42
0.0000000001
 43
0.0000000001
 40
0.0
 40
0.0
 40
0.0
 40
0.0
 40
1.0
 40
1.0
 40
1.0
 40
1.0
 10
-37.589300000000001
 20
-46.2577
 30
0.0
 10
-37.589300000000001
 20
-46.2577
 30
0.0
 10
-36.4268
 20
-47.420200000000001
 30
0.0
 10
-36.4268
 20
-47.420200000000001
 30
0.0
  0
SPLINE
  5
17D
100
AcDbEntity
  8
LC-004-005-----0
370
    35
100
AcDbSpline
210
0.0
220
0.0
230
1.0
 70
     0
 71
     3
 72
     8
 73
     4
 74
     0
 42
0.0000000001
 43
0.0000000001
 40
0.0
 40
0.0
 40
0.0
 40
0.0
 40
1.0
 40
1.0
 40
1.0
 40
1.0
 10
-35.405799999999999
 20
-46.2577
 30
0.0
 10
-35.405799999999999
 20
-46.2577
 30
0.0
 10
-34.429099999999998
 20
-47.234300000000005
 30
0.0
 10
-34.429099999999998
 20
-47.234300000000005
 30
0.0
  0
SPLINE
  5
17E
100
AcDbEntity
  8
LC-004-005-----0
370
    35
100
AcDbSpline
210
0.0
220
0.0
230
1.0
 70
     0
 71
     3
 72
     8
 73
     4
 74
     0
 42
0.0000000001
 43
0.0000000001
 40
0.0
 40
0.0
 40
0.0
 40
0.0
 40
1.0
 40
1.0
 40
1.0
 40
1.0
 10
-33.637300000000003
 20
-45.842700000000001
 30
0.0
 10
-33.637300000000003
 20
-45.842700000000001
 30
0.0
 10
-32.682400000000001
 20
-46.797600000000003
 30
0.0
 10
-32.682400000000001
 20
-46.797600000000003
 30
0.0
  0
SPLINE
  5
17F
100
AcDbEntity
  8
LC-004-005-----0
370
    35
100
AcDbSpline
210
0.0
220
0.0
230
1.0
 70
     0
 71
     3
 72
     8
 73
     4
 74
     0
 42
0.0000000001
 43
0.0000000001
 40
0.0
 40
0.0
 40
0.0
 40
0.0
 40
1.0
 40
1.0
 40
1.0
 40
1.0
 10
-31.890400000000003
 20
-45.405999999999999
 30
0.0
 10
-31.890400000000003
 20
-45.405999999999999
 30
0.0
 10
-30.845700000000001
 20
-46.450700000000005
 30
0.0
 10
-30.845700000000001
 20
-46.450700000000005
 30
0.0
  0
SPLINE
  5
180
100
AcDbEntity
  8
LC-004-005-----0
370
    35
100
AcDbSpline
210
0.0
220
0.0
230
1.0
 70
     0
 71
     3
 72
     8
 73
     4
 74
     0
 42
0.0000000001
 43
0.0000000001
 40
0.0
 40
0.0
 40
0.0
 40
0.0
 40
1.0
 40
1.0
 40
1.0
 40
1.0
 10
-26.508700000000001
 20
-50.787800000000004
 30
0.0
 10
-26.508700000000001
 20
-50.787800000000004
 30
0.0
 10
-24.853200000000001
 20
-52.443300000000001
 30
0.0
 10
-24.853200000000001
 20
-52.443300000000001
 30
0.0
  0
SPLINE
  5
181
100
AcDbEntity
  8
LC-004-005-----0
370
    35
100
AcDbSpline
210
0.0
220
0.0
230
1.0
 70
     0
 71
     3
 72
     8
 73
     4
 74
     0
 42
0.0000000001
 43
0.0000000001
 40
0.0
 40
0.0
 40
0.0
 40
0.0
 40
1.0
 40
1.0
 40
1.0
 40
1.0
 10
-29.843600000000002
 20
-45.269400000000005
 30
0.0
 10
-29.843600000000002
 20
-45.269400000000005
 30
0.0
 10
-28.662200000000002
 20
-46.450700000000005
 30
0.0
 10
-28.662200000000002
 20
-46.450700000000005
 30
0.0
  0
SPLINE
  5
182
100
AcDbEntity
  8
LC-004-005-----0
370
    35
100
AcDbSpline
210
0.0
220
0.0
230
1.0
 70
     0
 71
     3
 72
     8
 73
     4
 74
     0
 42
0.0000000001
 43
0.0000000001
 40
0.0
 40
0.0
 40
0.0
 40
0.0
 40
1.0
 40
1.0
 40
1.0
 40
1.0
 10
-26.508700000000001
 20
-48.604200000000006
 30
0.0
 10
-26.508700000000001
 20
-48.604200000000006
 30
0.0
 10
-25.1706
 20
-49.942300000000003
 30
0.0
 10
-25.1706
 20
-49.942300000000003
 30
0.0
  0
SPLINE
  5
183
100
AcDbEntity
  8
LC-004-005-----0
370
    35
100
AcDbSpline
210
0.0
220
0.0
230
1.0
 70
     0
 71
     3
 72
     8
 73
     4
 74
     0
 42
0.0000000001
 43
0.0000000001
 40
0.0
 40
0.0
 40
0.0
 40
0.0
 40
1.0
 40
1.0
 40
1.0
 40
1.0
 10
-23.827400000000001
 20
-51.285400000000003
 30
0.0
 10
-23.827400000000001
 20
-51.285400000000003
 30
0.0
 10
-22.669600000000003
 20
-52.443300000000001
 30
0.0
 10
-22.669600000000003
 20
-52.443300000000001
 30
0.0
  0
SPLINE
  5
184
100
AcDbEntity
  8
LC-004-005-----0
370
    35
100
AcDbSpline
210
0.0
220
0.0
230
1.0
 70
     0
 71
     3
 72
     8
 73
     4
 74
     0
 42
0.0000000001
 43
0.0000000001
 40
0.0
 40
0.0
 40
0.0
 40
0.0
 40
1.0
 40
1.0
 40
1.0
 40
1.0
 10
-27.649100000000001
 20
-45.280300000000004
 30
0.0
 10
-27.649100000000001
 20
-45.280300000000004
 30
0.0
 10
-25.1706
 20
-47.758800000000001
 30
0.0
 10
-25.1706
 20
-47.758800000000001
 30
0.0
  0
SPLINE
  5
185
100
AcDbEntity
  8
LC-004-005-----0
370
    35
100
AcDbSpline
210
0.0
220
0.0
230
1.0
 70
     0
 71
     3
 72
     8
 73
     4
 74
     0
 42
0.0000000001
 43
0.0000000001
 40
0.0
 40
0.0
 40
0.0
 40
0.0
 40
1.0
 40
1.0
 40
1.0
 40
1.0
 10
-21.643900000000002
 20
-51.285400000000003
 30
0.0
 10
-21.643900000000002
 20
-51.285400000000003
 30
0.0
 10
-20.486000000000001
 20
-52.443300000000001
 30
0.0
 10
-20.486000000000001
 20
-52.443300000000001
 30
0.0
  0
SPLINE
  5
186
100
AcDbEntity
  8
LC-004-005-----0
370
    35
100
AcDbSpline
210
0.0
220
0.0
230
1.0
 70
     0
 71
     3
 72
     8
 73
     4
 74
     0
 42
0.0000000001
 43
0.0000000001
 40
0.0
 40
0.0
 40
0.0
 40
0.0
 40
1.0
 40
1.0
 40
1.0
 40
1.0
 10
-25.454600000000003
 20
-45.2913
 30
0.0
 10
-25.454600000000003
 20
-45.2913
 30
0.0
 10
-25.1706
 20
-45.575200000000002
 30
0.0
 10
-25.1706
 20
-45.575200000000002
 30
0.0
  0
SPLINE
  5
187
100
AcDbEntity
  8
LC-004-005-----0
370
    35
100
AcDbSpline
210
0.0
220
0.0
230
1.0
 70
     0
 71
     3
 72
     8
 73
     4
 74
     0
 42
0.0000000001
 43
0.0000000001
 40
0.0
 40
0.0
 40
0.0
 40
0.0
 40
1.0
 40
1.0
 40
1.0
 40
1.0
 10
-19.4603
 20
-51.285400000000003
 30
0.0
 10
-19.4603
 20
-51.285400000000003
 30
0.0
 10
-18.302600000000002
 20
-52.443300000000001
 30
0.0
 10
-18.302600000000002
 20
-52.443300000000001
 30
0.0
  0
SPLINE
  5
188
100
AcDbEntity
  8
LC-004-005-----0
370
    35
100
AcDbSpline
210
0.0
220
0.0
230
1.0
 70
     0
 71
     3
 72
     8
 73
     4
 74
     0
 42
0.0000000001
 43
0.0000000001
 40
0.0
 40
0.0
 40
0.0
 40
0.0
 40
1.0
 40
1.0
 40
1.0
 40
1.0
 10
-17.276900000000001
 20
-51.285400000000003
 30
0.0
 10
-17.276900000000001
 20
-51.285400000000003
 30
0.0
 10
-16.119
 20
-52.443300000000001
 30
0.0
 10
-16.119
 20
-52.443300000000001
 30
0.0
  0
SPLINE
  5
189
100
AcDbEntity
  8
LC-004-005-----0
370
    35
100
AcDbSpline
210
0.0
220
0.0
230
1.0
 70
     0
 71
     3
 72
     8
 73
     4
 74
     0
 42
0.0000000001
 43
0.0000000001
 40
0.0
 40
0.0
 40
0.0
 40
0.0
 40
1.0
 40
1.0
 40
1.0
 40
1.0
 10
-15.093300000000001
 20
-51.285400000000003
 30
0.0
 10
-15.093300000000001
 20
-51.285400000000003
 30
0.0
 10
-13.935400000000001
 20
-52.443300000000001
 30
0.0
 10
-13.935400000000001
 20
-52.443300000000001
 30
0.0
  0
SPLINE
  5
18A
100
AcDbEntity
  8
LC-004-005-----0
370
    35
100
AcDbSpline
210
0.0
220
0.0
230
1.0
 70
     0
 71
     3
 72
     8
 73
     4
 74
     0
 42
0.0000000001
 43
0.0000000001
 40
0.0
 40
0.0
 40
0.0
 40
0.0
 40
1.0
 40
1.0
 40
1.0
 40
1.0
 10
-12.9099
 20
-51.285299999999999
 30
0.0
 10
-12.9099
 20
-51.285299999999999
 30
0.0
 10
-11.752000000000001
 20
-52.443300000000001
 30
0.0
 10
-11.752000000000001
 20
-52.443300000000001
 30
0.0
  0
SPLINE
  5
18B
100
AcDbEntity
  8
LC-004-005-----0
370
    35
100
AcDbSpline
210
0.0
220
0.0
230
1.0
 70
     0
 71
     3
 72
     8
 73
     4
 74
     0
 42
0.0000000001
 43
0.0000000001
 40
0.0
 40
0.0
 40
0.0
 40
0.0
 40
1.0
 40
1.0
 40
1.0
 40
1.0
 10
-10.7264
 20
-51.285299999999999
 30
0.0
 10
-10.7264
 20
-51.285299999999999
 30
0.0
 10
-9.5684000000000005
 20
-52.443200000000004
 30
0.0
 10
-9.5684000000000005
 20
-52.443200000000004
 30
0.0
  0
SPLINE
  5
18C
100
AcDbEntity
  8
LC-004-005-----0
370
    35
100
AcDbSpline
210
0.0
220
0.0
230
1.0
 70
     0
 71
     3
 72
     8
 73
     4
 74
     0
 42
0.0000000001
 43
0.0000000001
 40
0.0
 40
0.0
 40
0.0
 40
0.0
 40
1.0
 40
1.0
 40
1.0
 40
1.0
 10
-8.5427999999999997
 20
-51.285299999999999
 30
0.0
 10
-8.5427999999999997
 20
-51.285299999999999
 30
0.0
 10
-7.3848000000000003
 20
-52.443200000000004
 30
0.0
 10
-7.3848000000000003
 20
-52.443200000000004
 30
0.0
  0
SPLINE
  5
18D
100
AcDbEntity
  8
LC-004-005-----0
370
    35
100
AcDbSpline
210
0.0
220
0.0
230
1.0
 70
     0
 71
     3
 72
     8
 73
     4
 74
     0
 42
0.0000000001
 43
0.0000000001
 40
0.0
 40
0.0
 40
0.0
 40
0.0
 40
1.0
 40
1.0
 40
1.0
 40
1.0
 10
-6.3595000000000006
 20
-51.285200000000003
 30
0.0
 10
-6.3595000000000006
 20
-51.285200000000003
 30
0.0
 10
-5.5884
 20
-52.0563
 30
0.0
 10
-5.5884
 20
-52.0563
 30
0.0
  0
SPLINE
  5
18F
100
AcDbEntity
  8
LC-005-002-RND-0
370
    35
100
AcDbSpline
210
0.0
220
0.0
230
1.0
 70
     0
 71
     3
 72
     8
 73
     4
 74
     0
 42
0.0000000001
 43
0.0000000001
 40
0.0
 40
0.0
 40
0.0
 40
0.0
 40
1.0
 40
1.0
 40
1.0
 40
1.0
 10
-24.2057
 20
-2.2443
 30
0.0
 10
-24.738600000000002
 20
-2.2443
 30
0.0
 10
-25.1707
 20
-2.6763000000000003
 30
0.0
 10
-25.1707
 20
-3.2093000000000003
 30
0.0
  0
SPLINE
  5
190
100
AcDbEntity
  8
LC-005-002-RND-0
370
    35
100
AcDbSpline
210
0.0
220
0.0
230
1.0
 70
     0
 71
     3
 72
     8
 73
     4
 74
     0
 42
0.0000000001
 43
0.0000000001
 40
0.0
 40
0.0
 40
0.0
 40
0.0
 40
1.0
 40
1.0
 40
1.0
 40
1.0
 10
-24.2057
 20
-2.4373
 30
0.0
 10
-24.632000000000001
 20
-2.4373
 30
0.0
 10
-24.977700000000002
 20
-2.7829999999999999
 30
0.0
 10
-24.977700000000002
 20
-3.2093000000000003
 30
0.0
  0
SPLINE
  5
191
100
AcDbEntity
  8
LC-005-002-RND-0
370
    35
100
AcDbSpline
210
0.0
220
0.0
230
1.0
 70
     0
 71
     3
 72
     8
 73
     4
 74
     0
 42
0.0000000001
 43
0.0000000001
 40
0.0
 40
0.0
 40
0.0
 40
0.0
 40
1.0
 40
1.0
 40
1.0
 40
1.0
 10
-24.977500000000003
 20
-50.320599999999999
 30
0.0
 10
-24.977400000000003
 20
-50.7468
 30
0.0
 10
-24.631800000000002
 20
-51.092600000000004
 30
0.0
 10
-24.205400000000001
 20
-51.092400000000005
 30
0.0
  0
SPLINE
  5
192
100
AcDbEntity
  8
LC-005-002-RND-0
370
    35
100
AcDbSpline
210
0.0
220
0.0
230
1.0
 70
     0
 71
     3
 72
    12
 73
     8
 74
     0
 42
0.0000000001
 43
0.0000000001
 40
0.0
 40
0.0
 40
0.0
 40
0.0
 40
0.5
 40
0.5
 40
0.5
 40
0.5
 40
1.0
 40
1.0
 40
1.0
 40
1.0
 10
-25.1706
 20
-50.320500000000003
 30
0.0
 10
-25.1706
 20
-50.576500000000003
 30
0.0
 10
-25.068900000000003
 20
-50.821899999999999
 30
0.0
 10
-24.888000000000002
 20
-51.002900000000004
 30
0.0
 10
-24.888000000000002
 20
-51.002900000000004
 30
0.0
 10
-24.707000000000001
 20
-51.183800000000005
 30
0.0
 10
-24.461500000000001
 20
-51.285400000000003
 30
0.0
 10
-24.2056
 20
-51.285400000000003
 30
0.0
  0
SPLINE
  5
193
100
AcDbEntity
  8
LC-005-002-RND-0
370
    35
100
AcDbSpline
210
0.0
220
0.0
230
1.0
 70
     0
 71
     3
 72
    12
 73
     8
 74
     0
 42
0.0000000001
 43
0.0000000001
 40
0.0
 40
0.0
 40
0.0
 40
0.0
 40
0.5
 40
0.5
 40
0.5
 40
0.5
 40
1.0
 40
1.0
 40
1.0
 40
1.0
 10
-54.617600000000003
 20
-17.256600000000002
 30
0.0
 10
-54.548500000000004
 20
-17.2805
 30
0.0
 10
-54.471800000000002
 20
-17.263400000000001
 30
0.0
 10
-54.419600000000003
 20
-17.212199999999999
 30
0.0
 10
-54.419600000000003
 20
-17.212199999999999
 30
0.0
 10
-54.367400000000004
 20
-17.161100000000001
 30
0.0
 10
-54.348500000000001
 20
-17.084900000000001
 30
0.0
 10
-54.370699999999999
 20
-17.0152
 30
0.0
  0
SPLINE
  5
194
100
AcDbEntity
  8
LC-005-002-RND-0
370
    35
100
AcDbSpline
210
0.0
220
0.0
230
1.0
 70
     0
 71
     3
 72
    12
 73
     8
 74
     0
 42
0.0000000001
 43
0.0000000001
 40
0.0
 40
0.0
 40
0.0
 40
0.0
 40
0.5
 40
0.5
 40
0.5
 40
0.5
 40
1.0
 40
1.0
 40
1.0
 40
1.0
 10
-54.370699999999999
 20
-46.5505
 30
0.0
 10
-54.348300000000002
 20
-46.480900000000005
 30
0.0
 10
-54.3673
 20
-46.404600000000002
 30
0.0
 10
-54.419499999999999
 20
-46.3536
 30
0.0
 10
-54.419499999999999
 20
-46.3536
 30
0.0
 10
-54.471700000000006
 20
-46.302399999999999
 30
0.0
 10
-54.548400000000001
 20
-46.285200000000003
 30
0.0
 10
-54.6175
 20
-46.309100000000001
 30
0.0
  0
SPLINE
  5
196
100
AcDbEntity
  8
LC-007-003-----0
370
    20
100
AcDbSpline
210
0.0
220
0.0
230
1.0
 70
     0
 71
     3
 72
     8
 73
     4
 74
     0
 42
0.0000000001
 43
0.0000000001
 40
0.0
 40
0.0
 40
0.0
 40
0.0
 40
1.0
 40
1.0
 40
1.0
 40
1.0
 10
-58.739600000000003
 20
-46.257800000000003
 30
0.0
 10
-58.739600000000003
 20
-46.257800000000003
 30
0.0
 10
-75.411100000000005
 20
-46.257800000000003
 30
0.0
 10
-75.411100000000005
 20
-46.257800000000003
 30
0.0
  0
SPLINE
  5
197
100
AcDbEntity
  8
LC-007-003-----0
370
    20
100
AcDbSpline
210
0.0
220
0.0
230
1.0
 70
     0
 71
     3
 72
     8
 73
     4
 74
     0
 42
0.0000000001
 43
0.0000000001
 40
0.0
 40
0.0
 40
0.0
 40
0.0
 40
1.0
 40
1.0
 40
1.0
 40
1.0
 10
-58.739700000000006
 20
-17.308
 30
0.0
 10
-58.739700000000006
 20
-17.308
 30
0.0
 10
-75.411100000000005
 20
-17.308
 30
0.0
 10
-75.411100000000005
 20
-17.308
 30
0.0
  0
SPLINE
  5
198
100
AcDbEntity
  8
LC-007-003-----0
370
    20
100
AcDbSpline
210
0.0
220
0.0
230
1.0
 70
     0
 71
     3
 72
     8
 73
     4
 74
     0
 42
0.0000000001
 43
0.0000000001
 40
0.0
 40
0.0
 40
0.0
 40
0.0
 40
1.0
 40
1.0
 40
1.0
 40
1.0
 10
-67.515600000000006
 20
-56.973300000000002
 30
0.0
 10
-67.515600000000006
 20
-56.973300000000002
 30
0.0
 10
-68.926200000000009
 20
-46.257800000000003
 30
0.0
 10
-68.926200000000009
 20
-46.257800000000003
 30
0.0
  0
SPLINE
  5
199
100
AcDbEntity
  8
LC-007-003-----0
370
    20
100
AcDbSpline
210
0.0
220
0.0
230
1.0
 70
     0
 71
     3
 72
     8
 73
     4
 74
     0
 42
0.0000000001
 43
0.0000000001
 40
0.0
 40
0.0
 40
0.0
 40
0.0
 40
1.0
 40
1.0
 40
1.0
 40
1.0
 10
-68.926200000000009
 20
-46.257800000000003
 30
0.0
 10
-68.926200000000009
 20
-46.257800000000003
 30
0.0
 10
-70.337000000000003
 20
-56.973300000000002
 30
0.0
 10
-70.337000000000003
 20
-56.973300000000002
 30
0.0
  0
SPLINE
  5
19A
100
AcDbEntity
  8
LC-007-003-----0
370
    20
100
AcDbSpline
210
0.0
220
0.0
230
1.0
 70
     0
 71
     3
 72
     8
 73
     4
 74
     0
 42
0.0000000001
 43
0.0000000001
 40
0.0
 40
0.0
 40
0.0
 40
0.0
 40
1.0
 40
1.0
 40
1.0
 40
1.0
 10
-70.337000000000003
 20
-56.973300000000002
 30
0.0
 10
-70.337000000000003
 20
-56.973300000000002
 30
0.0
 10
-67.515600000000006
 20
-56.973300000000002
 30
0.0
 10
-67.515600000000006
 20
-56.973300000000002
 30
0.0
  0
SPLINE
  5
19B
100
AcDbEntity
  8
LC-007-003-----0
370
    20
100
AcDbSpline
210
0.0
220
0.0
230
1.0
 70
     0
 71
     3
 72
     8
 73
     4
 74
     0
 42
0.0000000001
 43
0.0000000001
 40
0.0
 40
0.0
 40
0.0
 40
0.0
 40
1.0
 40
1.0
 40
1.0
 40
1.0
 10
-67.882300000000001
 20
-56.997300000000003
 30
0.0
 10
-67.882300000000001
 20
-56.997300000000003
 30
0.0
 10
-68.926200000000009
 20
-49.067900000000002
 30
0.0
 10
-68.926200000000009
 20
-49.067900000000002
 30
0.0
  0
SPLINE
  5
19C
100
AcDbEntity
  8
LC-007-003-----0
370
    20
100
AcDbSpline
210
0.0
220
0.0
230
1.0
 70
     0
 71
     3
 72
     8
 73
     4
 74
     0
 42
0.0000000001
 43
0.0000000001
 40
0.0
 40
0.0
 40
0.0
 40
0.0
 40
1.0
 40
1.0
 40
1.0
 40
1.0
 10
-68.926200000000009
 20
-49.067900000000002
 30
0.0
 10
-68.926200000000009
 20
-49.067900000000002
 30
0.0
 10
-69.970200000000006
 20
-56.997300000000003
 30
0.0
 10
-69.970200000000006
 20
-56.997300000000003
 30
0.0
  0
SPLINE
  5
19D
100
AcDbEntity
  8
LC-007-003-----0
370
    20
100
AcDbSpline
210
0.0
220
0.0
230
1.0
 70
     0
 71
     3
 72
     8
 73
     4
 74
     0
 42
0.0000000001
 43
0.0000000001
 40
0.0
 40
0.0
 40
0.0
 40
0.0
 40
1.0
 40
1.0
 40
1.0
 40
1.0
 10
-68.249200000000002
 20
-57.021300000000004
 30
0.0
 10
-68.249200000000002
 20
-57.021300000000004
 30
0.0
 10
-68.926200000000009
 20
-51.877900000000004
 30
0.0
 10
-68.926200000000009
 20
-51.877900000000004
 30
0.0
  0
SPLINE
  5
19E
100
AcDbEntity
  8
LC-007-003-----0
370
    20
100
AcDbSpline
210
0.0
220
0.0
230
1.0
 70
     0
 71
     3
 72
     8
 73
     4
 74
     0
 42
0.0000000001
 43
0.0000000001
 40
0.0
 40
0.0
 40
0.0
 40
0.0
 40
1.0
 40
1.0
 40
1.0
 40
1.0
 10
-68.926200000000009
 20
-51.877900000000004
 30
0.0
 10
-68.926200000000009
 20
-51.877900000000004
 30
0.0
 10
-69.603400000000008
 20
-57.021300000000004
 30
0.0
 10
-69.603400000000008
 20
-57.021300000000004
 30
0.0
  0
SPLINE
  5
19F
100
AcDbEntity
  8
LC-007-003-----0
370
    20
100
AcDbSpline
210
0.0
220
0.0
230
1.0
 70
     0
 71
     3
 72
     8
 73
     4
 74
     0
 42
0.0000000001
 43
0.0000000001
 40
0.0
 40
0.0
 40
0.0
 40
0.0
 40
1.0
 40
1.0
 40
1.0
 40
1.0
 10
-68.615899999999996
 20
-57.045400000000001
 30
0.0
 10
-68.615899999999996
 20
-57.045400000000001
 30
0.0
 10
-68.926200000000009
 20
-54.688100000000006
 30
0.0
 10
-68.926200000000009
 20
-54.688100000000006
 30
0.0
  0
SPLINE
  5
1A0
100
AcDbEntity
  8
LC-007-003-----0
370
    20
100
AcDbSpline
210
0.0
220
0.0
230
1.0
 70
     0
 71
     3
 72
     8
 73
     4
 74
     0
 42
0.0000000001
 43
0.0000000001
 40
0.0
 40
0.0
 40
0.0
 40
0.0
 40
1.0
 40
1.0
 40
1.0
 40
1.0
 10
-68.926200000000009
 20
-54.688100000000006
 30
0.0
 10
-68.926200000000009
 20
-54.688100000000006
 30
0.0
 10
-69.236699999999999
 20
-57.045400000000001
 30
0.0
 10
-69.236699999999999
 20
-57.045400000000001
 30
0.0
  0
SPLINE
  5
1A1
100
AcDbEntity
  8
LC-007-003-----0
370
    20
100
AcDbSpline
210
0.0
220
0.0
230
1.0
 70
     0
 71
     3
 72
     8
 73
     4
 74
     0
 42
0.0000000001
 43
0.0000000001
 40
0.0
 40
0.0
 40
0.0
 40
0.0
 40
1.0
 40
1.0
 40
1.0
 40
1.0
 10
-70.337000000000003
 20
-6.5925000000000002
 30
0.0
 10
-70.337000000000003
 20
-6.5925000000000002
 30
0.0
 10
-68.926200000000009
 20
-17.308
 30
0.0
 10
-68.926200000000009
 20
-17.308
 30
0.0
  0
SPLINE
  5
1A2
100
AcDbEntity
  8
LC-007-003-----0
370
    20
100
AcDbSpline
210
0.0
220
0.0
230
1.0
 70
     0
 71
     3
 72
     8
 73
     4
 74
     0
 42
0.0000000001
 43
0.0000000001
 40
0.0
 40
0.0
 40
0.0
 40
0.0
 40
1.0
 40
1.0
 40
1.0
 40
1.0
 10
-68.926200000000009
 20
-17.308
 30
0.0
 10
-68.926200000000009
 20
-17.308
 30
0.0
 10
-67.515600000000006
 20
-6.5925000000000002
 30
0.0
 10
-67.515600000000006
 20
-6.5925000000000002
 30
0.0
  0
SPLINE
  5
1A3
100
AcDbEntity
  8
LC-007-003-----0
370
    20
100
AcDbSpline
210
0.0
220
0.0
230
1.0
 70
     0
 71
     3
 72
     8
 73
     4
 74
     0
 42
0.0000000001
 43
0.0000000001
 40
0.0
 40
0.0
 40
0.0
 40
0.0
 40
1.0
 40
1.0
 40
1.0
 40
1.0
 10
-67.515600000000006
 20
-6.5925000000000002
 30
0.0
 10
-67.515600000000006
 20
-6.5925000000000002
 30
0.0
 10
-70.337000000000003
 20
-6.5925000000000002
 30
0.0
 10
-70.337000000000003
 20
-6.5925000000000002
 30
0.0
  0
SPLINE
  5
1A4
100
AcDbEntity
  8
LC-007-003-----0
370
    20
100
AcDbSpline
210
0.0
220
0.0
230
1.0
 70
     0
 71
     3
 72
     8
 73
     4
 74
     0
 42
0.0000000001
 43
0.0000000001
 40
0.0
 40
0.0
 40
0.0
 40
0.0
 40
1.0
 40
1.0
 40
1.0
 40
1.0
 10
-69.970200000000006
 20
-6.5684000000000005
 30
0.0
 10
-69.970200000000006
 20
-6.5684000000000005
 30
0.0
 10
-68.926200000000009
 20
-14.497900000000001
 30
0.0
 10
-68.926200000000009
 20
-14.497900000000001
 30
0.0
  0
SPLINE
  5
1A5
100
AcDbEntity
  8
LC-007-003-----0
370
    20
100
AcDbSpline
210
0.0
220
0.0
230
1.0
 70
     0
 71
     3
 72
     8
 73
     4
 74
     0
 42
0.0000000001
 43
0.0000000001
 40
0.0
 40
0.0
 40
0.0
 40
0.0
 40
1.0
 40
1.0
 40
1.0
 40
1.0
 10
-68.926200000000009
 20
-14.497900000000001
 30
0.0
 10
-68.926200000000009
 20
-14.497900000000001
 30
0.0
 10
-67.882300000000001
 20
-6.5684000000000005
 30
0.0
 10
-67.882300000000001
 20
-6.5684000000000005
 30
0.0
  0
SPLINE
  5
1A6
100
AcDbEntity
  8
LC-007-003-----0
370
    20
100
AcDbSpline
210
0.0
220
0.0
230
1.0
 70
     0
 71
     3
 72
     8
 73
     4
 74
     0
 42
0.0000000001
 43
0.0000000001
 40
0.0
 40
0.0
 40
0.0
 40
0.0
 40
1.0
 40
1.0
 40
1.0
 40
1.0
 10
-69.603400000000008
 20
-6.5444000000000004
 30
0.0
 10
-69.603400000000008
 20
-6.5444000000000004
 30
0.0
 10
-68.926200000000009
 20
-11.687900000000001
 30
0.0
 10
-68.926200000000009
 20
-11.687900000000001
 30
0.0
  0
SPLINE
  5
1A7
100
AcDbEntity
  8
LC-007-003-----0
370
    20
100
AcDbSpline
210
0.0
220
0.0
230
1.0
 70
     0
 71
     3
 72
     8
 73
     4
 74
     0
 42
0.0000000001
 43
0.0000000001
 40
0.0
 40
0.0
 40
0.0
 40
0.0
 40
1.0
 40
1.0
 40
1.0
 40
1.0
 10
-68.926200000000009
 20
-11.687900000000001
 30
0.0
 10
-68.926200000000009
 20
-11.687900000000001
 30
0.0
 10
-68.249200000000002
 20
-6.5444000000000004
 30
0.0
 10
-68.249200000000002
 20
-6.5444000000000004
 30
0.0
  0
SPLINE
  5
1A8
100
AcDbEntity
  8
LC-007-003-----0
370
    20
100
AcDbSpline
210
0.0
220
0.0
230
1.0
 70
     0
 71
     3
 72
     8
 73
     4
 74
     0
 42
0.0000000001
 43
0.0000000001
 40
0.0
 40
0.0
 40
0.0
 40
0.0
 40
1.0
 40
1.0
 40
1.0
 40
1.0
 10
-69.236699999999999
 20
-6.5204000000000004
 30
0.0
 10
-69.236699999999999
 20
-6.5204000000000004
 30
0.0
 10
-68.926200000000009
 20
-8.8778000000000006
 30
0.0
 10
-68.926200000000009
 20
-8.8778000000000006
 30
0.0
  0
SPLINE
  5
1A9
100
AcDbEntity
  8
LC-007-003-----0
370
    20
100
AcDbSpline
210
0.0
220
0.0
230
1.0
 70
     0
 71
     3
 72
     8
 73
     4
 74
     0
 42
0.0000000001
 43
0.0000000001
 40
0.0
 40
0.0
 40
0.0
 40
0.0
 40
1.0
 40
1.0
 40
1.0
 40
1.0
 10
-68.926200000000009
 20
-8.8778000000000006
 30
0.0
 10
-68.926200000000009
 20
-8.8778000000000006
 30
0.0
 10
-68.615899999999996
 20
-6.5204000000000004
 30
0.0
 10
-68.615899999999996
 20
-6.5204000000000004
 30
0.0
  0
SPLINE
  5
1AA
100
AcDbEntity
  8
LC-007-003-----0
370
    20
100
AcDbSpline
210
0.0
220
0.0
230
1.0
 70
     0
 71
     3
 72
     8
 73
     4
 74
     0
 42
0.0000000001
 43
0.0000000001
 40
0.0
 40
0.0
 40
0.0
 40
0.0
 40
1.0
 40
1.0
 40
1.0
 40
1.0
 10
-68.926200000000009
 20
-61.389000000000003
 30
0.0
 10
-68.926200000000009
 20
-61.389000000000003
 30
0.0
 10
-68.926200000000009
 20
26.1572
 30
0.0
 10
-68.926200000000009
 20
26.1572
 30
0.0
  0
SPLINE
  5
1AB
100
AcDbEntity
  8
LC-007-003-----0
370
    20
100
AcDbSpline
210
0.0
220
0.0
230
1.0
 70
     0
 71
     3
 72
     8
 73
     4
 74
     0
 42
0.0000000001
 43
0.0000000001
 40
0.0
 40
0.0
 40
0.0
 40
0.0
 40
1.0
 40
1.0
 40
1.0
 40
1.0
 10
-5.9641000000000002
 20
-46.735300000000002
 30
0.0
 10
-5.9641000000000002
 20
-46.735300000000002
 30
0.0
 10
17.153700000000001
 20
-46.735300000000002
 30
0.0
 10
17.153700000000001
 20
-46.735300000000002
 30
0.0
  0
SPLINE
  5
1AC
100
AcDbEntity
  8
LC-007-003-----0
370
    20
100
AcDbSpline
210
0.0
220
0.0
230
1.0
 70
     0
 71
     3
 72
     8
 73
     4
 74
     0
 42
0.0000000001
 43
0.0000000001
 40
0.0
 40
0.0
 40
0.0
 40
0.0
 40
1.0
 40
1.0
 40
1.0
 40
1.0
 10
-5.9641999999999999
 20
-6.7942
 30
0.0
 10
-5.9641999999999999
 20
-6.7942
 30
0.0
 10
17.153700000000001
 20
-6.7942
 30
0.0
 10
17.153700000000001
 20
-6.7942
 30
0.0
  0
SPLINE
  5
1AD
100
AcDbEntity
  8
LC-007-003-----0
370
    20
100
AcDbSpline
210
0.0
220
0.0
230
1.0
 70
     0
 71
     3
 72
     8
 73
     4
 74
     0
 42
0.0000000001
 43
0.0000000001
 40
0.0
 40
0.0
 40
0.0
 40
0.0
 40
1.0
 40
1.0
 40
1.0
 40
1.0
 10
12.079700000000001
 20
-57.450900000000004
 30
0.0
 10
12.079700000000001
 20
-57.450900000000004
 30
0.0
 10
10.668900000000001
 20
-46.735300000000002
 30
0.0
 10
10.668900000000001
 20
-46.735300000000002
 30
0.0
  0
SPLINE
  5
1AE
100
AcDbEntity
  8
LC-007-003-----0
370
    20
100
AcDbSpline
210
0.0
220
0.0
230
1.0
 70
     0
 71
     3
 72
     8
 73
     4
 74
     0
 42
0.0000000001
 43
0.0000000001
 40
0.0
 40
0.0
 40
0.0
 40
0.0
 40
1.0
 40
1.0
 40
1.0
 40
1.0
 10
10.668900000000001
 20
-46.735300000000002
 30
0.0
 10
10.668900000000001
 20
-46.735300000000002
 30
0.0
 10
9.2582000000000004
 20
-57.450900000000004
 30
0.0
 10
9.2582000000000004
 20
-57.450900000000004
 30
0.0
  0
SPLINE
  5
1AF
100
AcDbEntity
  8
LC-007-003-----0
370
    20
100
AcDbSpline
210
0.0
220
0.0
230
1.0
 70
     0
 71
     3
 72
     8
 73
     4
 74
     0
 42
0.0000000001
 43
0.0000000001
 40
0.0
 40
0.0
 40
0.0
 40
0.0
 40
1.0
 40
1.0
 40
1.0
 40
1.0
 10
9.2582000000000004
 20
-57.450900000000004
 30
0.0
 10
9.2582000000000004
 20
-57.450900000000004
 30
0.0
 10
12.079700000000001
 20
-57.450900000000004
 30
0.0
 10
12.079700000000001
 20
-57.450900000000004
 30
0.0
  0
SPLINE
  5
1B0
100
AcDbEntity
  8
LC-007-003-----0
370
    20
100
AcDbSpline
210
0.0
220
0.0
230
1.0
 70
     0
 71
     3
 72
     8
 73
     4
 74
     0
 42
0.0000000001
 43
0.0000000001
 40
0.0
 40
0.0
 40
0.0
 40
0.0
 40
1.0
 40
1.0
 40
1.0
 40
1.0
 10
11.712800000000001
 20
-57.474900000000005
 30
0.0
 10
11.712800000000001
 20
-57.474900000000005
 30
0.0
 10
10.668900000000001
 20
-49.545400000000001
 30
0.0
 10
10.668900000000001
 20
-49.545400000000001
 30
0.0
  0
SPLINE
  5
1B1
100
AcDbEntity
  8
LC-007-003-----0
370
    20
100
AcDbSpline
210
0.0
220
0.0
230
1.0
 70
     0
 71
     3
 72
     8
 73
     4
 74
     0
 42
0.0000000001
 43
0.0000000001
 40
0.0
 40
0.0
 40
0.0
 40
0.0
 40
1.0
 40
1.0
 40
1.0
 40
1.0
 10
10.668900000000001
 20
-49.545400000000001
 30
0.0
 10
10.668900000000001
 20
-49.545400000000001
 30
0.0
 10
9.625
 20
-57.474900000000005
 30
0.0
 10
9.625
 20
-57.474900000000005
 30
0.0
  0
SPLINE
  5
1B2
100
AcDbEntity
  8
LC-007-003-----0
370
    20
100
AcDbSpline
210
0.0
220
0.0
230
1.0
 70
     0
 71
     3
 72
     8
 73
     4
 74
     0
 42
0.0000000001
 43
0.0000000001
 40
0.0
 40
0.0
 40
0.0
 40
0.0
 40
1.0
 40
1.0
 40
1.0
 40
1.0
 10
11.3461
 20
-57.498900000000006
 30
0.0
 10
11.3461
 20
-57.498900000000006
 30
0.0
 10
10.668900000000001
 20
-52.355499999999999
 30
0.0
 10
10.668900000000001
 20
-52.355499999999999
 30
0.0
  0
SPLINE
  5
1B3
100
AcDbEntity
  8
LC-007-003-----0
370
    20
100
AcDbSpline
210
0.0
220
0.0
230
1.0
 70
     0
 71
     3
 72
     8
 73
     4
 74
     0
 42
0.0000000001
 43
0.0000000001
 40
0.0
 40
0.0
 40
0.0
 40
0.0
 40
1.0
 40
1.0
 40
1.0
 40
1.0
 10
10.668900000000001
 20
-52.355499999999999
 30
0.0
 10
10.668900000000001
 20
-52.355499999999999
 30
0.0
 10
9.9918000000000013
 20
-57.498900000000006
 30
0.0
 10
9.9918000000000013
 20
-57.498900000000006
 30
0.0
  0
SPLINE
  5
1B4
100
AcDbEntity
  8
LC-007-003-----0
370
    20
100
AcDbSpline
210
0.0
220
0.0
230
1.0
 70
     0
 71
     3
 72
     8
 73
     4
 74
     0
 42
0.0000000001
 43
0.0000000001
 40
0.0
 40
0.0
 40
0.0
 40
0.0
 40
1.0
 40
1.0
 40
1.0
 40
1.0
 10
10.9793
 20
-57.5229
 30
0.0
 10
10.9793
 20
-57.5229
 30
0.0
 10
10.668900000000001
 20
-55.165500000000002
 30
0.0
 10
10.668900000000001
 20
-55.165500000000002
 30
0.0
  0
SPLINE
  5
1B5
100
AcDbEntity
  8
LC-007-003-----0
370
    20
100
AcDbSpline
210
0.0
220
0.0
230
1.0
 70
     0
 71
     3
 72
     8
 73
     4
 74
     0
 42
0.0000000001
 43
0.0000000001
 40
0.0
 40
0.0
 40
0.0
 40
0.0
 40
1.0
 40
1.0
 40
1.0
 40
1.0
 10
10.668900000000001
 20
-55.165500000000002
 30
0.0
 10
10.668900000000001
 20
-55.165500000000002
 30
0.0
 10
10.358600000000001
 20
-57.5229
 30
0.0
 10
10.358600000000001
 20
-57.5229
 30
0.0
  0
SPLINE
  5
1B6
100
AcDbEntity
  8
LC-007-003-----0
370
    20
100
AcDbSpline
210
0.0
220
0.0
230
1.0
 70
     0
 71
     3
 72
     8
 73
     4
 74
     0
 42
0.0000000001
 43
0.0000000001
 40
0.0
 40
0.0
 40
0.0
 40
0.0
 40
1.0
 40
1.0
 40
1.0
 40
1.0
 10
9.2582000000000004
 20
3.9213
 30
0.0
 10
9.2582000000000004
 20
3.9213
 30
0.0
 10
10.668900000000001
 20
-6.7942
 30
0.0
 10
10.668900000000001
 20
-6.7942
 30
0.0
  0
SPLINE
  5
1B7
100
AcDbEntity
  8
LC-007-003-----0
370
    20
100
AcDbSpline
210
0.0
220
0.0
230
1.0
 70
     0
 71
     3
 72
     8
 73
     4
 74
     0
 42
0.0000000001
 43
0.0000000001
 40
0.0
 40
0.0
 40
0.0
 40
0.0
 40
1.0
 40
1.0
 40
1.0
 40
1.0
 10
10.668900000000001
 20
-6.7942
 30
0.0
 10
10.668900000000001
 20
-6.7942
 30
0.0
 10
12.079700000000001
 20
3.9213
 30
0.0
 10
12.079700000000001
 20
3.9213
 30
0.0
  0
SPLINE
  5
1B8
100
AcDbEntity
  8
LC-007-003-----0
370
    20
100
AcDbSpline
210
0.0
220
0.0
230
1.0
 70
     0
 71
     3
 72
     8
 73
     4
 74
     0
 42
0.0000000001
 43
0.0000000001
 40
0.0
 40
0.0
 40
0.0
 40
0.0
 40
1.0
 40
1.0
 40
1.0
 40
1.0
 10
12.079700000000001
 20
3.9213
 30
0.0
 10
12.079700000000001
 20
3.9213
 30
0.0
 10
9.2582000000000004
 20
3.9213
 30
0.0
 10
9.2582000000000004
 20
3.9213
 30
0.0
  0
SPLINE
  5
1B9
100
AcDbEntity
  8
LC-007-003-----0
370
    20
100
AcDbSpline
210
0.0
220
0.0
230
1.0
 70
     0
 71
     3
 72
     8
 73
     4
 74
     0
 42
0.0000000001
 43
0.0000000001
 40
0.0
 40
0.0
 40
0.0
 40
0.0
 40
1.0
 40
1.0
 40
1.0
 40
1.0
 10
9.625
 20
3.9453
 30
0.0
 10
9.625
 20
3.9453
 30
0.0
 10
10.668900000000001
 20
-3.9841000000000002
 30
0.0
 10
10.668900000000001
 20
-3.9841000000000002
 30
0.0
  0
SPLINE
  5
1BA
100
AcDbEntity
  8
LC-007-003-----0
370
    20
100
AcDbSpline
210
0.0
220
0.0
230
1.0
 70
     0
 71
     3
 72
     8
 73
     4
 74
     0
 42
0.0000000001
 43
0.0000000001
 40
0.0
 40
0.0
 40
0.0
 40
0.0
 40
1.0
 40
1.0
 40
1.0
 40
1.0
 10
10.668900000000001
 20
-3.9841000000000002
 30
0.0
 10
10.668900000000001
 20
-3.9841000000000002
 30
0.0
 10
11.712800000000001
 20
3.9453
 30
0.0
 10
11.712800000000001
 20
3.9453
 30
0.0
  0
SPLINE
  5
1BB
100
AcDbEntity
  8
LC-007-003-----0
370
    20
100
AcDbSpline
210
0.0
220
0.0
230
1.0
 70
     0
 71
     3
 72
     8
 73
     4
 74
     0
 42
0.0000000001
 43
0.0000000001
 40
0.0
 40
0.0
 40
0.0
 40
0.0
 40
1.0
 40
1.0
 40
1.0
 40
1.0
 10
9.9918000000000013
 20
3.9693000000000001
 30
0.0
 10
9.9918000000000013
 20
3.9693000000000001
 30
0.0
 10
10.668900000000001
 20
-1.1741000000000001
 30
0.0
 10
10.668900000000001
 20
-1.1741000000000001
 30
0.0
  0
SPLINE
  5
1BC
100
AcDbEntity
  8
LC-007-003-----0
370
    20
100
AcDbSpline
210
0.0
220
0.0
230
1.0
 70
     0
 71
     3
 72
     8
 73
     4
 74
     0
 42
0.0000000001
 43
0.0000000001
 40
0.0
 40
0.0
 40
0.0
 40
0.0
 40
1.0
 40
1.0
 40
1.0
 40
1.0
 10
10.668900000000001
 20
-1.1741000000000001
 30
0.0
 10
10.668900000000001
 20
-1.1741000000000001
 30
0.0
 10
11.3461
 20
3.9693000000000001
 30
0.0
 10
11.3461
 20
3.9693000000000001
 30
0.0
  0
SPLINE
  5
1BD
100
AcDbEntity
  8
LC-007-003-----0
370
    20
100
AcDbSpline
210
0.0
220
0.0
230
1.0
 70
     0
 71
     3
 72
     8
 73
     4
 74
     0
 42
0.0000000001
 43
0.0000000001
 40
0.0
 40
0.0
 40
0.0
 40
0.0
 40
1.0
 40
1.0
 40
1.0
 40
1.0
 10
10.358600000000001
 20
3.9934000000000003
 30
0.0
 10
10.358600000000001
 20
3.9934000000000003
 30
0.0
 10
10.668900000000001
 20
1.6359000000000001
 30
0.0
 10
10.668900000000001
 20
1.6359000000000001
 30
0.0
  0
SPLINE
  5
1BE
100
AcDbEntity
  8
LC-007-003-----0
370
    20
100
AcDbSpline
210
0.0
220
0.0
230
1.0
 70
     0
 71
     3
 72
     8
 73
     4
 74
     0
 42
0.0000000001
 43
0.0000000001
 40
0.0
 40
0.0
 40
0.0
 40
0.0
 40
1.0
 40
1.0
 40
1.0
 40
1.0
 10
10.668900000000001
 20
1.6359000000000001
 30
0.0
 10
10.668900000000001
 20
1.6359000000000001
 30
0.0
 10
10.9793
 20
3.9934000000000003
 30
0.0
 10
10.9793
 20
3.9934000000000003
 30
0.0
  0
SPLINE
  5
1BF
100
AcDbEntity
  8
LC-007-003-----0
370
    20
100
AcDbSpline
210
0.0
220
0.0
230
1.0
 70
     0
 71
     3
 72
     8
 73
     4
 74
     0
 42
0.0000000001
 43
0.0000000001
 40
0.0
 40
0.0
 40
0.0
 40
0.0
 40
1.0
 40
1.0
 40
1.0
 40
1.0
 10
10.668900000000001
 20
-61.866500000000002
 30
0.0
 10
10.668900000000001
 20
-61.866500000000002
 30
0.0
 10
10.668900000000001
 20
67.343600000000009
 30
0.0
 10
10.668900000000001
 20
67.343600000000009
 30
0.0
  0
SPLINE
  5
1C0
100
AcDbEntity
  8
LC-007-003-----0
100
AcDbSpline
210
0.0
220
0.0
230
1.0
 70
     1
 71
     3
 72
    40
 73
    36
 74
     0
 42
0.0000000001
 43
0.0000000001
 40
0.0
 40
0.0
 40
0.0
 40
0.0
 40
0.1111111111111111
 40
0.1111111111111111
 40
0.1111111111111111
 40
0.1111111111111111
 40
0.2222222222222222
 40
0.2222222222222222
 40
0.2222222222222222
 40
0.2222222222222222
 40
0.3333333333333333
 40
0.3333333333333333
 40
0.3333333333333333
 40
0.3333333333333333
 40
0.4444444444444444
 40
0.4444444444444444
 40
0.4444444444444444
 40
0.4444444444444444
 40
0.5555555555555556
 40
0.5555555555555556
 40
0.5555555555555556
 40
0.5555555555555556
 40
0.6666666666666667
 40
0.6666666666666667
 40
0.6666666666666667
 40
0.6666666666666667
 40
0.7777777777777779
 40
0.7777777777777779
 40
0.7777777777777779
 40
0.7777777777777779
 40
0.8888888888888891
 40
0.8888888888888891
 40
0.8888888888888891
 40
0.8888888888888891
 40
1.0
 40
1.0
 40
1.0
 40
1.0
 10
-41.146900000000002
 20
-71.903999999999996
 30
0.0
 10
-41.146900000000002
 20
-71.903999999999996
 30
0.0
 10
-39.909500000000001
 20
-66.003
 30
0.0
 10
-39.909500000000001
 20
-66.003
 30
0.0
 10
-39.909500000000001
 20
-66.003
 30
0.0
 10
-40.442700000000002
 20
-66.421500000000009
 30
0.0
 10
-41.192399999999999
 20
-66.758099999999999
 30
0.0
 10
-42.1586
 20
-67.011099999999999
 30
0.0
 10
-42.1586
 20
-67.011099999999999
 30
0.0
 10
-42.1586
 20
-67.011099999999999
 30
0.0
 10
-41.978400000000001
 20
-66.135800000000003
 30
0.0
 10
-41.978400000000001
 20
-66.135800000000003
 30
0.0
 10
-41.978400000000001
 20
-66.135800000000003
 30
0.0
 10
-41.498100000000001
 20
-65.944800000000001
 30
0.0
 10
-41.024999999999999
 20
-65.693600000000004
 30
0.0
 10
-40.557300000000005
 20
-65.384299999999996
 30
0.0
 10
-40.557300000000005
 20
-65.384299999999996
 30
0.0
 10
-40.089700000000001
 20
-65.075000000000003
 30
0.0
 10
-39.738500000000002
 20
-64.805700000000002
 30
0.0
 10
-39.503800000000005
 20
-64.574600000000004
 30
0.0
 10
-39.503800000000005
 20
-64.574600000000004
 30
0.0
 10
-39.361800000000002
 20
-64.432699999999997
 30
0.0
 10
-39.227200000000003
 20
-64.259799999999998
 30
0.0
 10
-39.099800000000002
 20
-64.055999999999997
 30
0.0
 10
-39.099800000000002
 20
-64.055999999999997
 30
0.0
 10
-39.099800000000002
 20
-64.055999999999997
 30
0.0
 10
-38.539400000000001
 20
-64.055999999999997
 30
0.0
 10
-38.539400000000001
 20
-64.055999999999997
 30
0.0
 10
-38.539400000000001
 20
-64.055999999999997
 30
0.0
 10
-38.539400000000001
 20
-64.055999999999997
 30
0.0
 10
-40.175200000000004
 20
-71.903999999999996
 30
0.0
 10
-40.175200000000004
 20
-71.903999999999996
 30
0.0
 10
-40.175200000000004
 20
-71.903999999999996
 30
0.0
 10
-40.175200000000004
 20
-71.903999999999996
 30
0.0
 10
-41.146900000000002
 20
-71.903999999999996
 30
0.0
 10
-41.146900000000002
 20
-71.903999999999996
 30
0.0
  0
SPLINE
  5
1C1
100
AcDbEntity
  8
LC-007-003-----0
100
AcDbSpline
210
0.0
220
0.0
230
1.0
 70
     1
 71
     3
 72
   120
 73
   116
 74
     0
 42
0.0000000001
 43
0.0000000001
 40
0.0
 40
0.0
 40
0.0
 40
0.0
 40
0.0344827586206897
 40
0.0344827586206897
 40
0.0344827586206897
 40
0.0344827586206897
 40
0.0689655172413793
 40
0.0689655172413793
 40
0.0689655172413793
 40
0.0689655172413793
 40
0.103448275862069
 40
0.103448275862069
 40
0.103448275862069
 40
0.103448275862069
 40
0.1379310344827586
 40
0.1379310344827586
 40
0.1379310344827586
 40
0.1379310344827586
 40
0.1724137931034483
 40
0.1724137931034483
 40
0.1724137931034483
 40
0.1724137931034483
 40
0.206896551724138
 40
0.206896551724138
 40
0.206896551724138
 40
0.206896551724138
 40
0.2413793103448276
 40
0.2413793103448276
 40
0.2413793103448276
 40
0.2413793103448276
 40
0.2758620689655173
 40
0.2758620689655173
 40
0.2758620689655173
 40
0.2758620689655173
 40
0.310344827586207
 40
0.310344827586207
 40
0.310344827586207
 40
0.310344827586207
 40
0.3448275862068966
 40
0.3448275862068966
 40
0.3448275862068966
 40
0.3448275862068966
 40
0.3793103448275863
 40
0.3793103448275863
 40
0.3793103448275863
 40
0.3793103448275863
 40
0.413793103448276
 40
0.413793103448276
 40
0.413793103448276
 40
0.413793103448276
 40
0.4482758620689656
 40
0.4482758620689656
 40
0.4482758620689656
 40
0.4482758620689656
 40
0.4827586206896553
 40
0.4827586206896553
 40
0.4827586206896553
 40
0.4827586206896553
 40
0.517241379310345
 40
0.517241379310345
 40
0.517241379310345
 40
0.517241379310345
 40
0.5517241379310346
 40
0.5517241379310346
 40
0.5517241379310346
 40
0.5517241379310346
 40
0.5862068965517242
 40
0.5862068965517242
 40
0.5862068965517242
 40
0.5862068965517242
 40
0.6206896551724138
 40
0.6206896551724138
 40
0.6206896551724138
 40
0.6206896551724138
 40
0.6551724137931034
 40
0.6551724137931034
 40
0.6551724137931034
 40
0.6551724137931034
 40
0.689655172413793
 40
0.689655172413793
 40
0.689655172413793
 40
0.689655172413793
 40
0.7241379310344827
 40
0.7241379310344827
 40
0.7241379310344827
 40
0.7241379310344827
 40
0.7586206896551723
 40
0.7586206896551723
 40
0.7586206896551723
 40
0.7586206896551723
 40
0.7931034482758619
 40
0.7931034482758619
 40
0.7931034482758619
 40
0.7931034482758619
 40
0.8275862068965515
 40
0.8275862068965515
 40
0.8275862068965515
 40
0.8275862068965515
 40
0.8620689655172411
 40
0.8620689655172411
 40
0.8620689655172411
 40
0.8620689655172411
 40
0.8965517241379307
 40
0.8965517241379307
 40
0.8965517241379307
 40
0.8965517241379307
 40
0.9310344827586203
 40
0.9310344827586203
 40
0.9310344827586203
 40
0.9310344827586203
 40
0.9655172413793099
 40
0.9655172413793099
 40
0.9655172413793099
 40
0.9655172413793099
 40
1.0
 40
1.0
 40
1.0
 40
1.0
 10
-37.105499999999999
 20
-69.85690000000001
 30
0.0
 10
-37.105499999999999
 20
-69.85690000000001
 30
0.0
 10
-36.166499999999999
 20
-69.740499999999997
 30
0.0
 10
-36.166499999999999
 20
-69.740499999999997
 30
0.0
 10
-36.166499999999999
 20
-69.740499999999997
 30
0.0
 10
-36.095600000000005
 20
-70.2864
 30
0.0
 10
-35.939100000000003
 20
-70.679400000000001
 30
0.0
 10
-35.695300000000003
 20
-70.915900000000008
 30
0.0
 10
-35.695300000000003
 20
-70.915900000000008
 30
0.0
 10
-35.4514
 20
-71.150700000000001
 30
0.0
 10
-35.133000000000003
 20
-71.269000000000005
 30
0.0
 10
-34.738100000000003
 20
-71.269000000000005
 30
0.0
 10
-34.738100000000003
 20
-71.269000000000005
 30
0.0
 10
-34.261400000000002
 20
-71.269000000000005
 30
0.0
 10
-33.850200000000001
 20
-71.099699999999999
 30
0.0
 10
-33.504400000000004
 20
-70.757599999999996
 30
0.0
 10
-33.504400000000004
 20
-70.757599999999996
 30
0.0
 10
-33.1569
 20
-70.417400000000001
 30
0.0
 10
-32.984000000000002
 20
-70.026200000000003
 30
0.0
 10
-32.984000000000002
 20
-69.585800000000006
 30
0.0
 10
-32.984000000000002
 20
-69.585800000000006
 30
0.0
 10
-32.984000000000002
 20
-69.201900000000009
 30
0.0
 10
-33.115000000000002
 20
-68.883400000000009
 30
0.0
 10
-33.373400000000004
 20
-68.634100000000004
 30
0.0
 10
-33.373400000000004
 20
-68.634100000000004
 30
0.0
 10
-33.633600000000001
 20
-68.38300000000001
 30
0.0
 10
-33.981200000000001
 20
-68.257500000000007
 30
0.0
 10
-34.417900000000003
 20
-68.257500000000007
 30
0.0
 10
-34.417900000000003
 20
-68.257500000000007
 30
0.0
 10
-34.468800000000002
 20
-68.257500000000007
 30
0.0
 10
-34.570700000000002
 20
-68.264800000000008
 30
0.0
 10
-34.727200000000003
 20
-68.279300000000006
 30
0.0
 10
-34.727200000000003
 20
-68.279300000000006
 30
0.0
 10
-34.727200000000003
 20
-68.279300000000006
 30
0.0
 10
-34.561599999999999
 20
-67.473200000000006
 30
0.0
 10
-34.561599999999999
 20
-67.473200000000006
 30
0.0
 10
-34.561599999999999
 20
-67.473200000000006
 30
0.0
 10
-34.470700000000001
 20
-67.487800000000007
 30
0.0
 10
-34.381500000000003
 20
-67.495100000000008
 30
0.0
 10
-34.295999999999999
 20
-67.495100000000008
 30
0.0
 10
-34.295999999999999
 20
-67.495100000000008
 30
0.0
 10
-33.744599999999998
 20
-67.495100000000008
 30
0.0
 10
-33.320700000000002
 20
-67.360399999999998
 30
0.0
 10
-33.024100000000004
 20
-67.0929
 30
0.0
 10
-33.024100000000004
 20
-67.0929
 30
0.0
 10
-32.727499999999999
 20
-66.823599999999999
 30
0.0
 10
-32.580100000000002
 20
-66.49430000000001
 30
0.0
 10
-32.580100000000002
 20
-66.103099999999998
 30
0.0
 10
-32.580100000000002
 20
-66.103099999999998
 30
0.0
 10
-32.580100000000002
 20
-65.744600000000005
 30
0.0
 10
-32.700200000000002
 20
-65.44250000000001
 30
0.0
 10
-32.944000000000003
 20
-65.196899999999999
 30
0.0
 10
-32.944000000000003
 20
-65.196899999999999
 30
0.0
 10
-33.187800000000003
 20
-64.953100000000006
 30
0.0
 10
-33.486200000000004
 20
-64.829300000000003
 30
0.0
 10
-33.837400000000002
 20
-64.829300000000003
 30
0.0
 10
-33.837400000000002
 20
-64.829300000000003
 30
0.0
 10
-34.1813
 20
-64.829300000000003
 30
0.0
 10
-34.4925
 20
-64.954900000000009
 30
0.0
 10
-34.767299999999999
 20
-65.206000000000003
 30
0.0
 10
-34.767299999999999
 20
-65.206000000000003
 30
0.0
 10
-35.043800000000005
 20
-65.457099999999997
 30
0.0
 10
-35.220300000000002
 20
-65.810100000000006
 30
0.0
 10
-35.2986
 20
-66.268600000000006
 30
0.0
 10
-35.2986
 20
-66.268600000000006
 30
0.0
 10
-35.2986
 20
-66.268600000000006
 30
0.0
 10
-36.246600000000001
 20
-66.077600000000004
 30
0.0
 10
-36.246600000000001
 20
-66.077600000000004
 30
0.0
 10
-36.246600000000001
 20
-66.077600000000004
 30
0.0
 10
-36.0901
 20
-65.433400000000006
 30
0.0
 10
-35.789900000000003
 20
-64.936700000000002
 30
0.0
 10
-35.3459
 20
-64.585499999999996
 30
0.0
 10
-35.3459
 20
-64.585499999999996
 30
0.0
 10
-34.901900000000005
 20
-64.232500000000002
 30
0.0
 10
-34.376000000000005
 20
-64.055999999999997
 30
0.0
 10
-33.768300000000004
 20
-64.055999999999997
 30
0.0
 10
-33.768300000000004
 20
-64.055999999999997
 30
0.0
 10
-33.127800000000001
 20
-64.055999999999997
 30
0.0
 10
-32.611000000000004
 20
-64.250700000000009
 30
0.0
 10
-32.214300000000001
 20
-64.638300000000001
 30
0.0
 10
-32.214300000000001
 20
-64.638300000000001
 30
0.0
 10
-31.817700000000002
 20
-65.025800000000004
 30
0.0
 10
-31.619300000000003
 20
-65.500799999999998
 30
0.0
 10
-31.619300000000003
 20
-66.066699999999997
 30
0.0
 10
-31.619300000000003
 20
-66.066699999999997
 30
0.0
 10
-31.619300000000003
 20
-66.479700000000008
 30
0.0
 10
-31.726700000000001
 20
-66.838200000000001
 30
0.0
 10
-31.941400000000002
 20
-67.145700000000005
 30
0.0
 10
-31.941400000000002
 20
-67.145700000000005
 30
0.0
 10
-32.157900000000005
 20
-67.45320000000001
 30
0.0
 10
-32.480000000000004
 20
-67.707999999999998
 30
0.0
 10
-32.909400000000005
 20
-67.911799999999999
 30
0.0
 10
-32.909400000000005
 20
-67.911799999999999
 30
0.0
 10
-32.603700000000003
 20
-68.09190000000001
 30
0.0
 10
-32.376300000000001
 20
-68.310299999999998
 30
0.0
 10
-32.225300000000004
 20
-68.566800000000001
 30
0.0
 10
-32.225300000000004
 20
-68.566800000000001
 30
0.0
 10
-32.074200000000005
 20
-68.823400000000007
 30
0.0
 10
-31.997800000000002
 20
-69.11630000000001
 30
0.0
 10
-31.997800000000002
 20
-69.445700000000002
 30
0.0
 10
-31.997800000000002
 20
-69.445700000000002
 30
0.0
 10
-31.997800000000002
 20
-70.146299999999997
 30
0.0
 10
-32.259799999999998
 20
-70.754000000000005
 30
0.0
 10
-32.783900000000003
 20
-71.267099999999999
 30
0.0
 10
-32.783900000000003
 20
-71.267099999999999
 30
0.0
 10
-33.307900000000004
 20
-71.780299999999997
 30
0.0
 10
-33.935700000000004
 20
-72.036799999999999
 30
0.0
 10
-34.663499999999999
 20
-72.036799999999999
 30
0.0
 10
-34.663499999999999
 20
-72.036799999999999
 30
0.0
 10
-35.371400000000001
 20
-72.036799999999999
 30
0.0
 10
-35.942700000000002
 20
-71.83850000000001
 30
0.0
 10
-36.377600000000001
 20
-71.443600000000004
 30
0.0
 10
-36.377600000000001
 20
-71.443600000000004
 30
0.0
 10
-36.8125
 20
-71.046999999999997
 30
0.0
 10
-37.0563
 20
-70.517499999999998
 30
0.0
 10
-37.105499999999999
 20
-69.85690000000001
 30
0.0
  0
SPLINE
  5
1C2
100
AcDbEntity
  8
LC-007-003-----0
100
AcDbSpline
210
0.0
220
0.0
230
1.0
 70
     1
 71
     3
 72
   120
 73
   116
 74
     0
 42
0.0000000001
 43
0.0000000001
 40
0.0
 40
0.0
 40
0.0
 40
0.0
 40
0.0344827586206897
 40
0.0344827586206897
 40
0.0344827586206897
 40
0.0344827586206897
 40
0.0689655172413793
 40
0.0689655172413793
 40
0.0689655172413793
 40
0.0689655172413793
 40
0.103448275862069
 40
0.103448275862069
 40
0.103448275862069
 40
0.103448275862069
 40
0.1379310344827586
 40
0.1379310344827586
 40
0.1379310344827586
 40
0.1379310344827586
 40
0.1724137931034483
 40
0.1724137931034483
 40
0.1724137931034483
 40
0.1724137931034483
 40
0.206896551724138
 40
0.206896551724138
 40
0.206896551724138
 40
0.206896551724138
 40
0.2413793103448276
 40
0.2413793103448276
 40
0.2413793103448276
 40
0.2413793103448276
 40
0.2758620689655173
 40
0.2758620689655173
 40
0.2758620689655173
 40
0.2758620689655173
 40
0.310344827586207
 40
0.310344827586207
 40
0.310344827586207
 40
0.310344827586207
 40
0.3448275862068966
 40
0.3448275862068966
 40
0.3448275862068966
 40
0.3448275862068966
 40
0.3793103448275863
 40
0.3793103448275863
 40
0.3793103448275863
 40
0.3793103448275863
 40
0.413793103448276
 40
0.413793103448276
 40
0.413793103448276
 40
0.413793103448276
 40
0.4482758620689656
 40
0.4482758620689656
 40
0.4482758620689656
 40
0.4482758620689656
 40
0.4827586206896553
 40
0.4827586206896553
 40
0.4827586206896553
 40
0.4827586206896553
 40
0.517241379310345
 40
0.517241379310345
 40
0.517241379310345
 40
0.517241379310345
 40
0.5517241379310346
 40
0.5517241379310346
 40
0.5517241379310346
 40
0.5517241379310346
 40
0.5862068965517242
 40
0.5862068965517242
 40
0.5862068965517242
 40
0.5862068965517242
 40
0.6206896551724138
 40
0.6206896551724138
 40
0.6206896551724138
 40
0.6206896551724138
 40
0.6551724137931034
 40
0.6551724137931034
 40
0.6551724137931034
 40
0.6551724137931034
 40
0.689655172413793
 40
0.689655172413793
 40
0.689655172413793
 40
0.689655172413793
 40
0.7241379310344827
 40
0.7241379310344827
 40
0.7241379310344827
 40
0.7241379310344827
 40
0.7586206896551723
 40
0.7586206896551723
 40
0.7586206896551723
 40
0.7586206896551723
 40
0.7931034482758619
 40
0.7931034482758619
 40
0.7931034482758619
 40
0.7931034482758619
 40
0.8275862068965515
 40
0.8275862068965515
 40
0.8275862068965515
 40
0.8275862068965515
 40
0.8620689655172411
 40
0.8620689655172411
 40
0.8620689655172411
 40
0.8620689655172411
 40
0.8965517241379307
 40
0.8965517241379307
 40
0.8965517241379307
 40
0.8965517241379307
 40
0.9310344827586203
 40
0.9310344827586203
 40
0.9310344827586203
 40
0.9310344827586203
 40
0.9655172413793099
 40
0.9655172413793099
 40
0.9655172413793099
 40
0.9655172413793099
 40
1.0
 40
1.0
 40
1.0
 40
1.0
 10
-30.867800000000003
 20
-69.669499999999999
 30
0.0
 10
-30.867800000000003
 20
-69.669499999999999
 30
0.0
 10
-29.887
 20
-69.5749
 30
0.0
 10
-29.887
 20
-69.5749
 30
0.0
 10
-29.887
 20
-69.5749
 30
0.0
 10
-29.894300000000001
 20
-69.713200000000001
 30
0.0
 10
-29.8979
 20
-69.796900000000008
 30
0.0
 10
-29.8979
 20
-69.824200000000005
 30
0.0
 10
-29.8979
 20
-69.824200000000005
 30
0.0
 10
-29.8979
 20
-70.058900000000008
 30
0.0
 10
-29.837900000000001
 20
-70.295500000000004
 30
0.0
 10
-29.7196
 20
-70.533799999999999
 30
0.0
 10
-29.7196
 20
-70.533799999999999
 30
0.0
 10
-29.599500000000003
 20
-70.772199999999998
 30
0.0
 10
-29.4376
 20
-70.9542
 30
0.0
 10
-29.233800000000002
 20
-71.079700000000003
 30
0.0
 10
-29.233800000000002
 20
-71.079700000000003
 30
0.0
 10
-29.030000000000001
 20
-71.207099999999997
 30
0.0
 10
-28.813400000000001
 20
-71.269000000000005
 30
0.0
 10
-28.586000000000002
 20
-71.269000000000005
 30
0.0
 10
-28.586000000000002
 20
-71.269000000000005
 30
0.0
 10
-28.287600000000001
 20
-71.269000000000005
 30
0.0
 10
-27.983700000000002
 20
-71.167100000000005
 30
0.0
 10
-27.674400000000002
 20
-70.959600000000009
 30
0.0
 10
-27.674400000000002
 20
-70.959600000000009
 30
0.0
 10
-27.365000000000002
 20
-70.754000000000005
 30
0.0
 10
-27.1157
 20
-70.453800000000001
 30
0.0
 10
-26.922900000000002
 20
-70.058900000000008
 30
0.0
 10
-26.922900000000002
 20
-70.058900000000008
 30
0.0
 10
-26.7318
 20
-69.665900000000008
 30
0.0
 10
-26.635400000000001
 20
-69.27470000000001
 30
0.0
 10
-26.635400000000001
 20
-68.887100000000004
 30
0.0
 10
-26.635400000000001
 20
-68.887100000000004
 30
0.0
 10
-26.635400000000001
 20
-68.450400000000002
 30
0.0
 10
-26.764500000000002
 20
-68.099199999999996
 30
0.0
 10
-27.021100000000001
 20
-67.83720000000001
 30
0.0
 10
-27.021100000000001
 20
-67.83720000000001
 30
0.0
 10
-27.279500000000002
 20
-67.573300000000003
 30
0.0
 10
-27.617900000000002
 20
-67.442300000000003
 30
0.0
 10
-28.0365
 20
-67.442300000000003
 30
0.0
 10
-28.0365
 20
-67.442300000000003
 30
0.0
 10
-28.3185
 20
-67.442300000000003
 30
0.0
 10
-28.584200000000003
 20
-67.509600000000006
 30
0.0
 10
-28.833400000000001
 20
-67.644300000000001
 30
0.0
 10
-28.833400000000001
 20
-67.644300000000001
 30
0.0
 10
-29.084600000000002
 20
-67.778900000000007
 30
0.0
 10
-29.317500000000003
 20
-67.982700000000008
 30
0.0
 10
-29.535800000000002
 20
-68.25200000000001
 30
0.0
 10
-29.535800000000002
 20
-68.25200000000001
 30
0.0
 10
-29.535800000000002
 20
-68.25200000000001
 30
0.0
 10
-30.378300000000003
 20
-68.19380000000001
 30
0.0
 10
-30.378300000000003
 20
-68.19380000000001
 30
0.0
 10
-30.378300000000003
 20
-68.19380000000001
 30
0.0
 10
-30.378300000000003
 20
-68.19380000000001
 30
0.0
 10
-29.199200000000001
 20
-64.196100000000001
 30
0.0
 10
-29.199200000000001
 20
-64.196100000000001
 30
0.0
 10
-29.199200000000001
 20
-64.196100000000001
 30
0.0
 10
-29.199200000000001
 20
-64.196100000000001
 30
0.0
 10
-25.381600000000002
 20
-64.196100000000001
 30
0.0
 10
-25.381600000000002
 20
-64.196100000000001
 30
0.0
 10
-25.381600000000002
 20
-64.196100000000001
 30
0.0
 10
-25.381600000000002
 20
-64.196100000000001
 30
0.0
 10
-25.569100000000002
 20
-65.080399999999997
 30
0.0
 10
-25.569100000000002
 20
-65.080399999999997
 30
0.0
 10
-25.569100000000002
 20
-65.080399999999997
 30
0.0
 10
-25.569100000000002
 20
-65.080399999999997
 30
0.0
 10
-28.538700000000002
 20
-65.080399999999997
 30
0.0
 10
-28.538700000000002
 20
-65.080399999999997
 30
0.0
 10
-28.538700000000002
 20
-65.080399999999997
 30
0.0
 10
-28.538700000000002
 20
-65.080399999999997
 30
0.0
 10
-29.124600000000001
 20
-67.069299999999998
 30
0.0
 10
-29.124600000000001
 20
-67.069299999999998
 30
0.0
 10
-29.124600000000001
 20
-67.069299999999998
 30
0.0
 10
-28.904400000000003
 20
-66.909199999999998
 30
0.0
 10
-28.677
 20
-66.789100000000005
 30
0.0
 10
-28.445900000000002
 20
-66.709000000000003
 30
0.0
 10
-28.445900000000002
 20
-66.709000000000003
 30
0.0
 10
-28.213000000000001
 20
-66.628900000000002
 30
0.0
 10
-27.972800000000003
 20
-66.58890000000001
 30
0.0
 10
-27.7271
 20
-66.58890000000001
 30
0.0
 10
-27.7271
 20
-66.58890000000001
 30
0.0
 10
-27.130300000000002
 20
-66.58890000000001
 30
0.0
 10
-26.640800000000002
 20
-66.78540000000001
 30
0.0
 10
-26.256900000000002
 20
-67.180300000000003
 30
0.0
 10
-26.256900000000002
 20
-67.180300000000003
 30
0.0
 10
-25.872900000000001
 20
-67.575100000000006
 30
0.0
 10
-25.680099999999999
 20
-68.115600000000001
 30
0.0
 10
-25.680099999999999
 20
-68.801600000000008
 30
0.0
 10
-25.680099999999999
 20
-68.801600000000008
 30
0.0
 10
-25.680099999999999
 20
-69.402000000000001
 30
0.0
 10
-25.812900000000003
 20
-69.955200000000005
 30
0.0
 10
-26.0749
 20
-70.462900000000005
 30
0.0
 10
-26.0749
 20
-70.462900000000005
 30
0.0
 10
-26.338800000000003
 20
-70.968699999999998
 30
0.0
 10
-26.700900000000001
 20
-71.358100000000007
 30
0.0
 10
-27.159400000000002
 20
-71.629199999999997
 30
0.0
 10
-27.159400000000002
 20
-71.629199999999997
 30
0.0
 10
-27.619800000000001
 20
-71.902200000000008
 30
0.0
 10
-28.116500000000002
 20
-72.036799999999999
 30
0.0
 10
-28.649700000000003
 20
-72.036799999999999
 30
0.0
 10
-28.649700000000003
 20
-72.036799999999999
 30
0.0
 10
-29.097300000000001
 20
-72.036799999999999
 30
0.0
 10
-29.494
 20
-71.936800000000005
 30
0.0
 10
-29.839700000000001
 20
-71.733000000000004
 30
0.0
 10
-29.839700000000001
 20
-71.733000000000004
 30
0.0
 10
-30.183600000000002
 20
-71.531000000000006
 30
0.0
 10
-30.442
 20
-71.252600000000001
 30
0.0
 10
-30.614900000000002
 20
-70.895899999999997
 30
0.0
 10
-30.614900000000002
 20
-70.895899999999997
 30
0.0
 10
-30.787700000000001
 20
-70.5411
 30
0.0
 10
-30.873200000000001
 20
-70.186300000000003
 30
0.0
 10
-30.873200000000001
 20
-69.829599999999999
 30
0.0
 10
-30.873200000000001
 20
-69.829599999999999
 30
0.0
 10
-30.873200000000001
 20
-69.795100000000005
 30
0.0
 10
-30.871400000000001
 20
-69.7423
 30
0.0
 10
-30.867800000000003
 20
-69.669499999999999
 30
0.0
  0
SPLINE
  5
1C3
100
AcDbEntity
  8
LC-007-003-----0
370
    20
100
AcDbSpline
210
0.0
220
0.0
230
1.0
 70
     0
 71
     3
 72
     8
 73
     4
 74
     0
 42
0.0000000001
 43
0.0000000001
 40
0.0
 40
0.0
 40
0.0
 40
0.0
 40
1.0
 40
1.0
 40
1.0
 40
1.0
 10
-3.754
 20
-50.952400000000004
 30
0.0
 10
-3.754
 20
-50.952400000000004
 30
0.0
 10
-3.754
 20
-79.334299999999999
 30
0.0
 10
-3.754
 20
-79.334299999999999
 30
0.0
  0
SPLINE
  5
1C4
100
AcDbEntity
  8
LC-007-003-----0
370
    20
100
AcDbSpline
210
0.0
220
0.0
230
1.0
 70
     0
 71
     3
 72
     8
 73
     4
 74
     0
 42
0.0000000001
 43
0.0000000001
 40
0.0
 40
0.0
 40
0.0
 40
0.0
 40
1.0
 40
1.0
 40
1.0
 40
1.0
 10
-58.756800000000005
 20
-47.588100000000004
 30
0.0
 10
-58.756800000000005
 20
-47.588100000000004
 30
0.0
 10
-58.756800000000005
 20
-79.334299999999999
 30
0.0
 10
-58.756800000000005
 20
-79.334299999999999
 30
0.0
  0
SPLINE
  5
1C5
100
AcDbEntity
  8
LC-007-003-----0
370
    20
100
AcDbSpline
210
0.0
220
0.0
230
1.0
 70
     0
 71
     3
 72
     8
 73
     4
 74
     0
 42
0.0000000001
 43
0.0000000001
 40
0.0
 40
0.0
 40
0.0
 40
0.0
 40
1.0
 40
1.0
 40
1.0
 40
1.0
 10
-14.435500000000001
 20
-71.438699999999997
 30
0.0
 10
-14.435500000000001
 20
-71.438699999999997
 30
0.0
 10
-3.7200000000000002
 20
-72.849500000000006
 30
0.0
 10
-3.7200000000000002
 20
-72.849500000000006
 30
0.0
  0
SPLINE
  5
1C6
100
AcDbEntity
  8
LC-007-003-----0
370
    20
100
AcDbSpline
210
0.0
220
0.0
230
1.0
 70
     0
 71
     3
 72
     8
 73
     4
 74
     0
 42
0.0000000001
 43
0.0000000001
 40
0.0
 40
0.0
 40
0.0
 40
0.0
 40
1.0
 40
1.0
 40
1.0
 40
1.0
 10
-3.7200000000000002
 20
-72.849500000000006
 30
0.0
 10
-3.7200000000000002
 20
-72.849500000000006
 30
0.0
 10
-14.435500000000001
 20
-74.260300000000001
 30
0.0
 10
-14.435500000000001
 20
-74.260300000000001
 30
0.0
  0
SPLINE
  5
1C7
100
AcDbEntity
  8
LC-007-003-----0
370
    20
100
AcDbSpline
210
0.0
220
0.0
230
1.0
 70
     0
 71
     3
 72
     8
 73
     4
 74
     0
 42
0.0000000001
 43
0.0000000001
 40
0.0
 40
0.0
 40
0.0
 40
0.0
 40
1.0
 40
1.0
 40
1.0
 40
1.0
 10
-14.435500000000001
 20
-74.260300000000001
 30
0.0
 10
-14.435500000000001
 20
-74.260300000000001
 30
0.0
 10
-14.435500000000001
 20
-71.438699999999997
 30
0.0
 10
-14.435500000000001
 20
-71.438699999999997
 30
0.0
  0
SPLINE
  5
1C8
100
AcDbEntity
  8
LC-007-003-----0
370
    20
100
AcDbSpline
210
0.0
220
0.0
230
1.0
 70
     0
 71
     3
 72
     8
 73
     4
 74
     0
 42
0.0000000001
 43
0.0000000001
 40
0.0
 40
0.0
 40
0.0
 40
0.0
 40
1.0
 40
1.0
 40
1.0
 40
1.0
 10
-14.4595
 20
-71.805599999999998
 30
0.0
 10
-14.4595
 20
-71.805599999999998
 30
0.0
 10
-6.5300000000000002
 20
-72.849500000000006
 30
0.0
 10
-6.5300000000000002
 20
-72.849500000000006
 30
0.0
  0
SPLINE
  5
1C9
100
AcDbEntity
  8
LC-007-003-----0
370
    20
100
AcDbSpline
210
0.0
220
0.0
230
1.0
 70
     0
 71
     3
 72
     8
 73
     4
 74
     0
 42
0.0000000001
 43
0.0000000001
 40
0.0
 40
0.0
 40
0.0
 40
0.0
 40
1.0
 40
1.0
 40
1.0
 40
1.0
 10
-6.5300000000000002
 20
-72.849500000000006
 30
0.0
 10
-6.5300000000000002
 20
-72.849500000000006
 30
0.0
 10
-14.4595
 20
-73.8934
 30
0.0
 10
-14.4595
 20
-73.8934
 30
0.0
  0
SPLINE
  5
1CA
100
AcDbEntity
  8
LC-007-003-----0
370
    20
100
AcDbSpline
210
0.0
220
0.0
230
1.0
 70
     0
 71
     3
 72
     8
 73
     4
 74
     0
 42
0.0000000001
 43
0.0000000001
 40
0.0
 40
0.0
 40
0.0
 40
0.0
 40
1.0
 40
1.0
 40
1.0
 40
1.0
 10
-14.483500000000001
 20
-72.172300000000007
 30
0.0
 10
-14.483500000000001
 20
-72.172300000000007
 30
0.0
 10
-9.3400999999999996
 20
-72.849500000000006
 30
0.0
 10
-9.3400999999999996
 20
-72.849500000000006
 30
0.0
  0
SPLINE
  5
1CB
100
AcDbEntity
  8
LC-007-003-----0
370
    20
100
AcDbSpline
210
0.0
220
0.0
230
1.0
 70
     0
 71
     3
 72
     8
 73
     4
 74
     0
 42
0.0000000001
 43
0.0000000001
 40
0.0
 40
0.0
 40
0.0
 40
0.0
 40
1.0
 40
1.0
 40
1.0
 40
1.0
 10
-9.3400999999999996
 20
-72.849500000000006
 30
0.0
 10
-9.3400999999999996
 20
-72.849500000000006
 30
0.0
 10
-14.483500000000001
 20
-73.526700000000005
 30
0.0
 10
-14.483500000000001
 20
-73.526700000000005
 30
0.0
  0
SPLINE
  5
1CC
100
AcDbEntity
  8
LC-007-003-----0
370
    20
100
AcDbSpline
210
0.0
220
0.0
230
1.0
 70
     0
 71
     3
 72
     8
 73
     4
 74
     0
 42
0.0000000001
 43
0.0000000001
 40
0.0
 40
0.0
 40
0.0
 40
0.0
 40
1.0
 40
1.0
 40
1.0
 40
1.0
 10
-14.5075
 20
-72.539200000000008
 30
0.0
 10
-14.5075
 20
-72.539200000000008
 30
0.0
 10
-12.1501
 20
-72.849500000000006
 30
0.0
 10
-12.1501
 20
-72.849500000000006
 30
0.0
  0
SPLINE
  5
1CD
100
AcDbEntity
  8
LC-007-003-----0
370
    20
100
AcDbSpline
210
0.0
220
0.0
230
1.0
 70
     0
 71
     3
 72
     8
 73
     4
 74
     0
 42
0.0000000001
 43
0.0000000001
 40
0.0
 40
0.0
 40
0.0
 40
0.0
 40
1.0
 40
1.0
 40
1.0
 40
1.0
 10
-12.1501
 20
-72.849500000000006
 30
0.0
 10
-12.1501
 20
-72.849500000000006
 30
0.0
 10
-14.5075
 20
-73.159800000000004
 30
0.0
 10
-14.5075
 20
-73.159800000000004
 30
0.0
  0
SPLINE
  5
1CE
100
AcDbEntity
  8
LC-007-003-----0
370
    20
100
AcDbSpline
210
0.0
220
0.0
230
1.0
 70
     0
 71
     3
 72
     8
 73
     4
 74
     0
 42
0.0000000001
 43
0.0000000001
 40
0.0
 40
0.0
 40
0.0
 40
0.0
 40
1.0
 40
1.0
 40
1.0
 40
1.0
 10
-48.0929
 20
-74.19380000000001
 30
0.0
 10
-48.0929
 20
-74.19380000000001
 30
0.0
 10
-58.808400000000006
 20
-72.783000000000001
 30
0.0
 10
-58.808400000000006
 20
-72.783000000000001
 30
0.0
  0
SPLINE
  5
1CF
100
AcDbEntity
  8
LC-007-003-----0
370
    20
100
AcDbSpline
210
0.0
220
0.0
230
1.0
 70
     0
 71
     3
 72
     8
 73
     4
 74
     0
 42
0.0000000001
 43
0.0000000001
 40
0.0
 40
0.0
 40
0.0
 40
0.0
 40
1.0
 40
1.0
 40
1.0
 40
1.0
 10
-58.808400000000006
 20
-72.783000000000001
 30
0.0
 10
-58.808400000000006
 20
-72.783000000000001
 30
0.0
 10
-48.0929
 20
-71.372200000000007
 30
0.0
 10
-48.0929
 20
-71.372200000000007
 30
0.0
  0
SPLINE
  5
1D0
100
AcDbEntity
  8
LC-007-003-----0
370
    20
100
AcDbSpline
210
0.0
220
0.0
230
1.0
 70
     0
 71
     3
 72
     8
 73
     4
 74
     0
 42
0.0000000001
 43
0.0000000001
 40
0.0
 40
0.0
 40
0.0
 40
0.0
 40
1.0
 40
1.0
 40
1.0
 40
1.0
 10
-48.0929
 20
-71.372200000000007
 30
0.0
 10
-48.0929
 20
-71.372200000000007
 30
0.0
 10
-48.0929
 20
-74.19380000000001
 30
0.0
 10
-48.0929
 20
-74.19380000000001
 30
0.0
  0
SPLINE
  5
1D1
100
AcDbEntity
  8
LC-007-003-----0
370
    20
100
AcDbSpline
210
0.0
220
0.0
230
1.0
 70
     0
 71
     3
 72
     8
 73
     4
 74
     0
 42
0.0000000001
 43
0.0000000001
 40
0.0
 40
0.0
 40
0.0
 40
0.0
 40
1.0
 40
1.0
 40
1.0
 40
1.0
 10
-48.068800000000003
 20
-73.826900000000009
 30
0.0
 10
-48.068800000000003
 20
-73.826900000000009
 30
0.0
 10
-55.9983
 20
-72.783000000000001
 30
0.0
 10
-55.9983
 20
-72.783000000000001
 30
0.0
  0
SPLINE
  5
1D2
100
AcDbEntity
  8
LC-007-003-----0
370
    20
100
AcDbSpline
210
0.0
220
0.0
230
1.0
 70
     0
 71
     3
 72
     8
 73
     4
 74
     0
 42
0.0000000001
 43
0.0000000001
 40
0.0
 40
0.0
 40
0.0
 40
0.0
 40
1.0
 40
1.0
 40
1.0
 40
1.0
 10
-55.9983
 20
-72.783000000000001
 30
0.0
 10
-55.9983
 20
-72.783000000000001
 30
0.0
 10
-48.068800000000003
 20
-71.739100000000008
 30
0.0
 10
-48.068800000000003
 20
-71.739100000000008
 30
0.0
  0
SPLINE
  5
1D3
100
AcDbEntity
  8
LC-007-003-----0
370
    20
100
AcDbSpline
210
0.0
220
0.0
230
1.0
 70
     0
 71
     3
 72
     8
 73
     4
 74
     0
 42
0.0000000001
 43
0.0000000001
 40
0.0
 40
0.0
 40
0.0
 40
0.0
 40
1.0
 40
1.0
 40
1.0
 40
1.0
 10
-48.044699999999999
 20
-73.4602
 30
0.0
 10
-48.044699999999999
 20
-73.4602
 30
0.0
 10
-53.188200000000002
 20
-72.783000000000001
 30
0.0
 10
-53.188200000000002
 20
-72.783000000000001
 30
0.0
  0
SPLINE
  5
1D4
100
AcDbEntity
  8
LC-007-003-----0
370
    20
100
AcDbSpline
210
0.0
220
0.0
230
1.0
 70
     0
 71
     3
 72
     8
 73
     4
 74
     0
 42
0.0000000001
 43
0.0000000001
 40
0.0
 40
0.0
 40
0.0
 40
0.0
 40
1.0
 40
1.0
 40
1.0
 40
1.0
 10
-53.188200000000002
 20
-72.783000000000001
 30
0.0
 10
-53.188200000000002
 20
-72.783000000000001
 30
0.0
 10
-48.044699999999999
 20
-72.105800000000002
 30
0.0
 10
-48.044699999999999
 20
-72.105800000000002
 30
0.0
  0
SPLINE
  5
1D5
100
AcDbEntity
  8
LC-007-003-----0
370
    20
100
AcDbSpline
210
0.0
220
0.0
230
1.0
 70
     0
 71
     3
 72
     8
 73
     4
 74
     0
 42
0.0000000001
 43
0.0000000001
 40
0.0
 40
0.0
 40
0.0
 40
0.0
 40
1.0
 40
1.0
 40
1.0
 40
1.0
 10
-48.020700000000005
 20
-73.093299999999999
 30
0.0
 10
-48.020700000000005
 20
-73.093299999999999
 30
0.0
 10
-50.378100000000003
 20
-72.783000000000001
 30
0.0
 10
-50.378100000000003
 20
-72.783000000000001
 30
0.0
  0
SPLINE
  5
1D6
100
AcDbEntity
  8
LC-007-003-----0
370
    20
100
AcDbSpline
210
0.0
220
0.0
230
1.0
 70
     0
 71
     3
 72
     8
 73
     4
 74
     0
 42
0.0000000001
 43
0.0000000001
 40
0.0
 40
0.0
 40
0.0
 40
0.0
 40
1.0
 40
1.0
 40
1.0
 40
1.0
 10
-50.378100000000003
 20
-72.783000000000001
 30
0.0
 10
-50.378100000000003
 20
-72.783000000000001
 30
0.0
 10
-48.020700000000005
 20
-72.472700000000003
 30
0.0
 10
-48.020700000000005
 20
-72.472700000000003
 30
0.0
  0
SPLINE
  5
1D7
100
AcDbEntity
  8
LC-007-003-----0
370
    20
100
AcDbSpline
210
0.0
220
0.0
230
1.0
 70
     0
 71
     3
 72
     8
 73
     4
 74
     0
 42
0.0000000001
 43
0.0000000001
 40
0.0
 40
0.0
 40
0.0
 40
0.0
 40
1.0
 40
1.0
 40
1.0
 40
1.0
 10
-3.754
 20
-72.849500000000006
 30
0.0
 10
-3.754
 20
-72.849500000000006
 30
0.0
 10
-58.756800000000005
 20
-72.849500000000006
 30
0.0
 10
-58.756800000000005
 20
-72.849500000000006
 30
0.0
  0
ENDSEC
  0
SECTION
  2
OBJECTS
  0
DICTIONARY
  5
19
100
AcDbDictionary
280
     0
281
     1
  3
ACAD_GROUP
350
1A
  3
ACAD_MLINESTYLE
350
1B
  3
ACAD_LAYOUT
350
1E
  3
ACAD_PLOTSETTINGS
350
22
  3
ACAD_PLOTSTYLENAME
350
1F
  3
ACAD_WIPEOUT_VARS
350
23
  0
DICTIONARY
  5
1A
102
{ACAD_REACTORS
330
19
102
}
100
AcDbDictionary
280
     0
281
     1
  0
DICTIONARY
  5
1B
102
{ACAD_REACTORS
330
19
102
}
100
AcDbDictionary
280
     0
281
     1
  3
Standard
350
1C
  0
MLINESTYLE
  5
1C
102
{ACAD_REACTORS
330
1B
102
}
100
AcDbMlineStyle
  2
Standard
 70
     0
  3

 62
     0
 51
90.0
 52
90.0
 71
     2
 49
0.5
 62
   256
  6
BYLAYER
 49
-0.5
 62
   256
  6
BYLAYER
  0
ACDBDICTIONARYWDFLT
  5
1F
102
{ACAD_REACTORS
330
19
102
}
100
AcDbDictionary
281
     1
  3
Normal
350
1D
100
AcDbDictionaryWithDefault
340
1D
  0
ACDBPLACEHOLDER
  5
1D
102
{ACAD_REACTORS
330
1F
102
}
  0
LAYOUT
  5
20
102
{ACAD_REACTORS
330
1E
102
}
100
AcDbPlotSettings
  1

  2

  4

  6

 40
0.0
 41
0.0
 42
0.0
 43
0.0
 44
0.0
 45
0.0
 46
0.0
 47
0.0
 48
0.0
 49
0.0
140
0.0
141
0.0
142
1.0
143
1.0
 70
  1024
 72
     0
 73
     0
 74
     0
  7

 75
     0
147
1.0
148
0.0
149
0.0
100
AcDbLayout
  1
Model
 70
     0
 71
     0
 10
0.0
 20
0.0
 11
0.0
 21
0.0
 12
0.0
 22
0.0
 32
0.0
 14
0.0
 24
0.0
 34
0.0
 15
0.0
 25
0.0
 35
0.0
146
0.0
 13
0.0
 23
0.0
 33
0.0
 16
0.0
 26
0.0
 36
0.0
 17
0.0
 27
0.0
 37
0.0
 76
     0
330
A
331
0
345
0
346
0
  0
LAYOUT
  5
21
102
{ACAD_REACTORS
330
1E
102
}
100
AcDbPlotSettings
  1

  2

  4

  6

 40
0.0
 41
0.0
 42
0.0
 43
0.0
 44
0.0
 45
0.0
 46
0.0
 47
0.0
 48
0.0
 49
0.0
140
0.0
141
0.0
142
1.0
143
1.0
 70
     0
 72
     0
 73
     0
 74
     0
  7

 75
     0
147
1.0
148
0.0
149
0.0
100
AcDbLayout
  1
Layout1
 70
     0
 71
     0
 10
0.0
 20
0.0
 11
0.0
 21
0.0
 12
0.0
 22
0.0
 32
0.0
 14
0.0
 24
0.0
 34
0.0
 15
0.0
 25
0.0
 35
0.0
146
0.0
 13
0.0
 23
0.0
 33
0.0
 16
0.0
 26
0.0
 36
0.0
 17
0.0
 27
0.0
 37
0.0
 76
     0
330
B
331
0
345
0
346
0
  0
DICTIONARY
  5
1E
102
{ACAD_REACTORS
330
19
102
}
100
AcDbDictionary
280
     0
281
     1
  3
Layout1
350
21
  3
Model
350
20
  0
DICTIONARY
  5
22
102
{ACAD_REACTORS
330
19
102
}
100
AcDbDictionary
280
     0
281
     1
  0
WIPEOUTVARIABLES
  5
23
100
AcDbWipeoutVariables
 70
     1
  0
ENDSEC
  0
EOF
